Song name
# A B C D E F G H I J K L M N O P Q R S T U V W X Y Z

Thousand Foot Krutch - So Far Gone tab

---------------------------------------------------------------------
SO FAR GONE  THOUSAND KRUTCH FOOT
---------------------------------------------------------------------
Tuning: Standard (Capo 3rd Fret)

   D       Em          D9         C 
e|---------0---0-0-----0-0-0-0----------3---------------------------|
B|-0-0-0---0---0-0-----3-3-3-3----------3---------------------------|
G|-0-2-0---0---0-0-0---2-0-2-0----------0---------------------------|
D|---------2---2-2-0----------------0h2-----------------------------|
A|-------0-2---2-2-0--------------3---------------------------------|
E|---------0---0-0--------------------------------------------------|

e|-------------------------0-0--------------------------------------|
B|-------------------------1-0--------------------------------------|
G|-------------------------0-0-0------------------------------------|
D|-7-7-5---5-5-5-5---------2-2-2----0h2-4-5-------------------------|
A|-5-5-5-9-7-7-7-5---------3-3-3------------------------------------|
E|------------------------------------------------------------------|
Tap to rate this tab
# A B C D E F G H I J K L M N O P Q R S T U V W X Y Z