Song name
# A B C D E F G H I J K L M N O P Q R S T U V W X Y Z

Thousand Foot Krutch - Fly On The Wall tab

INTRO/VERSE

Synth/Electric 1

E|--------------------------------------------------------------|
B|--------------------------------------------------------------|
G|-------------------------------------------4------------------|
D|---5-4---------5-4---------3-2---------5-4---4---5-4----------|
A|-2-----2-2-2-2-----2-2-2-0-----2-2-2-2---------3------3-3-3-3-|
D|--------------------------------------------------------------|

 ----------------------|
 ----------------------|
 ----------------------|
 ----5-4-----------5-4-|  (play for verse)
 --3-----3-3-3-3-2-----|
 ----------------------|

PRE-CHORUS

Electric 2
(delay,reverb, whatever fits)
E|------|
B|------|
G|------|
D|-5--9-|
A|-5--9-|
D|-5--9-|

CHORUS

Electric 1

E|-15-12----19--14-15-|
B|-------15-----------|
G|--------------------|
D|--------------------|
A|--------------------|
D|--------------------|

Electric 2

E|--------------|
B|--------------|
G|--------------|
D|-10--12--5--2-|
A|-10--12--5--2-|
D|-10--12--5--2-|

VERSE

VERSE (part 2

Electric 2
(listen to song for strum pattern)
E|---------------|
B|---------8-7---|
G|-9-7-5-4-----7-|
D|-x-x-x-x-------|
A|-7-5-3-2-------|
D|---------------|

CHORUS

CHORUS

END WITH STRINGS OUTRO
Tap to rate this tab
 
# A B C D E F G H I J K L M N O P Q R S T U V W X Y Z