Song name
# A B C D E F G H I J K L M N O P Q R S T U V W X Y Z

Thousand Foot Krutch - Learn To Breathe tab

Learn to Breathe
Intro

e-------------------|
B-------------------|
G----------------5--|
D--7--3--5--3---3---|
A--7--3--5--3-3----|
D--7--3--5--3-3-----| X4

Then
e---------------------------|
B---------------------------|
G---------------------------|
D----7---9--5-----7---9---3-|
A---7---9---5----7---9----3-|
D--7---9----5---7---9-----3-|

Verse

e-------------|
B-------------|
G-------------|
D--7--3--5--3-|
A--7--3--5--3-|
D--7--3--5--3-|  x4

Chorus

e------------------------------------------------------|
B------------------------------------------------------|
G------------------------------------------------------|
D--55--11--8-8-8-88-3-3-3333---55--00--1-1-1-11-8-8-77-|
A--55--11--8-8-8-88-3-3-3333---55--00--1-1-1-11-8-8-77-|
D--55--11--8-8-8-88-3-3-3333---55--00--1-1-1-11-8-8-77-|

Verse 2(same as verse 1)

e-------------|
B-------------|
G-------------|
D--7--3--5--3-|
A--7--3--5--3-|
D--7--3--5--3-|  x4

Chorus

e------------------------------------------------------|
B------------------------------------------------------|
G------------------------------------------------------|
D--55--11--8-8-8-88-3-3-3333---55--00--1-1-1-11-8-8-77-|
A--55--11--8-8-8-88-3-3-3333---55--00--1-1-1-11-8-8-77-|
D--55--11--8-8-8-88-3-3-3333---55--00--1-1-1-11-8-8-77-|

 Bridge

e--------------|
B--------------|
G-----5-----4--|
D--2--5--5--4--|
A--2--3--5--2--|
D--2-----5-----|

Then

e-------------------------------------|
B-------------------------------------|
G-------------------------------------|
D--9~-754~--454-2~--------------------|
A-------------------------------------|
D-------------------------------------|

The other guitar sounds like its playing the E chord(2nd fret)
through that.

Chorus 2

e-----------------------------------------------------------|
B-----------------------------------------------------------|
G-----------------------------------------------------------|
D--77--33--10-10-10-1010-5-5-5555--77-22-5-5-5-55-10-10-55--|
A--77--33--10-10-10-1010-5-5-5555--77-22-5-5-5-55-10-10-55--|
D--77--33--10-10-10-1010-5-5-5555--77-22-5-5-5-55-10-10-55--|

Outro

e-----------------------------------|
B-----------------------------------|
G-----------------------------------|
D----7---9--5-----7---9---3--3-3-3~-|
A---7---9---5----7---9----3--3-3-3~-|
D--7---9----5---7---9-----3--3-3-3~-|
Tap to rate this tab
 
# A B C D E F G H I J K L M N O P Q R S T U V W X Y Z