Song name
# A B C D E F G H I J K L M N O P Q R S T U V W X Y Z

Thousand Foot Krutch - New Design tab

-------------------------------------------------------------------------------
			     New Design - Thousand Foot Krutch
-------------------------------------------------------------------------------
Tabbed by:Clint(ascguitarist)
Email:Vaporrising@aol.com

This is track #9 from TFK's Phenomenon cd. Go out and buy it!!! 
This is my first tab so there are probably alot of mistakes. 

Tuning:Dadgbe
  
  (Intro) Clean
e|--------------------------------------------------------------------------|
B|--------------------------------------------------------------------------|
G|--------------------------------------------------------------------------|
D|-8-8-8-8-7-7-7-7-0-0-0-0-0-0-0-0-0----------------------------------------|
A|-8-8-8-8-7-7-7-7-0-0-0-0-0-0-0-0-0----------------------------------------|
D|-8-8-8-8-7-7-7-7-0-0-0-0-0-0-0-0-0----------------------------------------|
 PM---------------   ---------------
  
  (Verse 1) Clean
e|--------------------------------------------------------------------------|
B|--------------------------------------------------------------------------|
G|--------------------------------------------------------------------------|
D|-88888888777777770-0-0-0-0-0-0-0-0----------------------------------------|
A|-88888888777777770-0-0-0-0-0-0-0-0----------------------------------------|
D|-88888888777777770-0-0-0-0-0-0-0-0----------------------------------------|
 PM----------------  ---------------
  
  (Chorus) Distortion
e|--------------------------------------------------------------------------|
B|--------------------------------------------------------------------------|
G|--------------------------------------------------------------------------|
D|-8-111-33-66-0-0-8-7-0-8-7-0-7----88888888-1010101010101010-0-0-8-7-0-8-70|
A|-8\111-33-66-0-0-8p7-0-8p7-0-7----88888888-1010101010101010-0-0-8p7-0-8p70|
D|-8-111-33-66-0-0-8-7-0-8-7-0-7----88888888-1010101010101010-0-0-8-7-0-8-70|

  (Verse 2) Distortion
e|--------------------------------------------------------------------------|
B|--------------------------------------------------------------------------|
G|--------------------------------------------------------------------------|
D|-8-8-8-8-7-7-7-7-0-0-0-0-0-0-0-0-0----------------------------------------|
A|-8-8-8-8-7-7-7-7-0-0-0-0-0-0-0-0-0----------------------------------------|
D|-8-8-8-8-7-7-7-7-0-0-0-0-0-0-0-0-0----------------------------------------|
 

  (Verse 2b) Distortion
e|--------------------------------------------------------------------------|
B|--------------------------------------------------------------------------|
G|-1010101010101099999999---------------------------------------------------|
D|-8-8-8-8-8-8-8-777777770-0-0-0-0-0-0-0-0----------------------------------|
A|-8-8-8-8-8-8-8-777777770-0-0-0-0-0-0-0-0----------------------------------|
D|-8-8-8-8-8-8-8-777777770-0-0-0-0-0-0-0-0----------------------------------|

  (Interlude)
e|--------------------------------------------------------------------------|
B|--------------------------------------------------------------------------|
G|---------------------5-7--------------------------------------------------|
D|-2-0-0-xxx-2-0-0-xxx-5-7--------------------------------------------------|
A|-2-0-0-xxx-2-0-0-xxx------------------------------------------------------|
D|-2-0-0-xxx-2-0-0-xxx------------------------------------------------------|

Order:
Intro 2x
Verse 1 2x
Chorus 2x
Verse 2 2x
Verse 2b 2x
Chorus 2x
Interlude 14x
Chrous 2x

| /  slide up
| \  slide down
| h  hammer-on
| p  pull-off
| ~  vibrato
| +  harmonic
| x  Mute note
=============================================================================
Tap to rate this tab
# A B C D E F G H I J K L M N O P Q R S T U V W X Y Z