Guitaretab - guitar tabs
Song name
# A B C D E F G H I J K L M N O P Q R S T U V W X Y Z

Thousand Foot Krutch - I Climb tab

Thousand Foot Krutch
I Climb
Tabbed by U B the band
Tuning D A D G B E

key:
x-scratch
h-hammer
p-pull off
\-slide down
/-slide up

Intro/verse:
E|-------6-5-6---------------------|
B|--8------------8-------4-3h4p3---|
G|------------------10-------------|
D|--5------------8-------1---------|
A|--5------------8-------1---------|
D|--5------------8-------1---------|x2

Pre-Chorus:
E|------------------------------------------------------|
B|------------------------------------------------------|
G|------------------------------------------------------|
D|--1-1---1-1---1-1---1-1-8\7--5-5---5-5---5-5---5-5-0--|
A|--1-1---1-1---1-1---1-1-8\7--5-5---5-5---5-5---5-5-0--|
D|--1-1---1-1---1-1---1-1-8\7--5-5---5-5---5-5---5-5-0--|

E|-------------------------------------------------------|
B|-------------------------------------------------------|
G|-------------------------------------------------------|
D|--1-1---1-1---1-1---1-1-8\7--3-3---3-3---3-3---33333x--|
A|--1-1---1-1---1-1---1-1-8\7--3-3---3-3---3-3---33333x--|
D|--1-1---1-1---1-1---1-1-8\7--3-3---3-3---3-3---33333x--|

Chorus:
E|------------------------------------------|
B|------------------------------------------|
G|------------------------------------------|
D|--5-5-5-5--0-0-0-0-0-0--6-6-6-6--1-1-1-1--|
A|--5-5-5-5-00-0-0-0-0--6-6-6-6--1-1-1-1--|
D|--5-5-5-5--0-0-0-0-0-0--6-6-6-6--1-1-1-1--|

E|-------------------------------------------|
B|-------------------------------------------|
G|-------------------------------------------|
D|--5-5-5-5--0-0-0-0-0-0--6-6-6xx-6-6-6-6\3--|
A|--5-5-5-5--0-0-0-0-0-0--6-6-6xx-6-6-6-6\3--|
D|--5-5-5-5--0-0-0-0-0-0--6-6-6xx-6-6-6-6\3--|x2

Intro:
E|------6-5-6--------------------|
B|--8-----------8------4-3h4p3---|
G|-----------------10------------|
D|--5-----------8------1---------|
A|--5-----------8------1---------|
D|--5-----------8------1---------|x3

Pre-Chorus two:
E|---------------------------------------------------------|
B|---------------------------------------------------------|
G|---------------------------------------------------------|
D|--1-1---1-1---1-1---8-7-10--3---5-5---5-5---5-5---5-5-0--|
A|--1-1---1-1---1-1---8-7-10--3---5-5---5-5---5-5---5-5-0--|
D|--1-1---1-1---1-1---8-7-10--3---5-5---5-5---5-5---5-5-0--|
[ Tab from: http://www.guitaretab.com/t/thousand-foot-krutch/51646.html ]
E|-------------------------------------------------------|
B|-------------------------------------------------------|
G|-------------------------------------------------------|
D|--1-1---1-1---1-1---1-1-8\7--3-3---3-3---3-3---33333x--|
A|--1-1---1-1---1-1---1-1-8\7--3-3---3-3---3-3---33333x--|
D|--1-1---1-1---1-1---1-1-8\7--3-3---3-3---3-3---33333x--|

Chorus:
E|------------------------------------------|
B|------------------------------------------|
G|------------------------------------------|
D|--5-5-5-5--0-0-0-0-0-0--6-6-6-6--1-1-1-1--|
A|--5-5-5-5-00-0-0-0-0--6-6-6-6--1-1-1-1--|
D|--5-5-5-5--0-0-0-0-0-0--6-6-6-6--1-1-1-1--|

E|-------------------------------------------|
B|-------------------------------------------|
G|-------------------------------------------|
D|--5-5-5-5--0-0-0-0-0-0--6-6-6xx-6-6-6-6\3--|
A|--5-5-5-5--0-0-0-0-0-0--6-6-6xx-6-6-6-6\3--|
D|--5-5-5-5--0-0-0-0-0-0--6-6-6xx-6-6-6-6\3--|x2
				  
Bridge:
E|---------------------------------------------------------|
B|---------------------------------------------------------|
G|--77777777-88888888-1010101010101010-12-12-12-12--15/12--|
D|--xxxxxxxx-xxxxxxxx--x-x-x-x-x-x-x-x--x--x--x--x---x--x--|
A|--55555555-66666666--8-8-8-8-8-8-8-8-10-10-10-10--13/10--|
D|---------------------------------------------------------|

E|-----------------------------------------------------------|
B|-----------------------------------------------------------|
G|--77777777-88888888-55555555-7--7--7--7--8----8\5----------|
D|--xxxxxxxx-xxxxxxxx-xxxxxxxx-x--x--x--x--x----x-x--xx-xxx--|
A|--55555555-66666666-33333333-5--5--5--5-6----6\3--xx-xxx--|
D|---------------------------------------------------xx-xxx--|

Chorus:
E|------------------------------------------|
B|------------------------------------------|
G|------------------------------------------|
D|--5-5-5-5--0-0-0-0-0-0--6-6-6-6--1-1-1-1--|
A|--5-5-5-5-00-0-0-0-0--6-6-6-6--1-1-1-1--|
D|--5-5-5-5--0-0-0-0-0-0--6-6-6-6--1-1-1-1--|

E|-------------------------------------------|
B|-------------------------------------------|
G|-------------------------------------------|
D|--5-5-5-5--0-0-0-0-0-0--6-6-6xx-6-6-6-6\3--|
A|--5-5-5-5--0-0-0-0-0-0--6-6-6xx-6-6-6-6\3--|
D|--5-5-5-5--0-0-0-0-0-0--6-6-6xx-6-6-6-6\3--|x2

Outro
E|------------------------------------------|
B|------------------------------------------|
G|------------------------------------------|
D|--5-5-5-5--0-0-0-0-0-0--6-6-6-6--1-1-1-1--|
A|--5-5-5-5-00-0-0-0-0--6-6-6-6--1-1-1-1--|
D|--5-5-5-5--0-0-0-0-0-0--6-6-6-6--1-1-1-1--|

E|-----------------------------------------|
B|-----------------------------------------|
G|-----------------------------------------|
D|--5-5-5-5--0-0-0-0-0-0--6-6-6xx-6-6-6-6--|
A|--5-5-5-5--0-0-0-0-0-0--6-6-6xx-6-6-6-6--|
D|--5-5-5-5--0-0-0-0-0-0--6-6-6xx-6-6-6-6--|x2

TFK RAWKS!-PMT
Related for I Climb tab