Guitaretab - guitar tabs
Song name
# A B C D E F G H I J K L M N O P Q R S T U V W X Y Z

Thousand Foot Krutch - Faith Love And Happiness tab

Song: Faith Love and Happiness
Artist: Thousand Foot Krutch
Copyright: Phenomenon 2003
Tabbed by: SSj Guitarist

*= mute strings

Intro:
E----------------------------------------------------------------------|
B----------------------------------------------------------------------|
G------------8/7------------88*88-------------8/7-------------888-888--|
D--5-8-7-3-1-8/7-8--5-8-7-3-88*88---5-8-7-3-1-8/7-8---5-8-7-3-888-888--|
A--5-8-7-3-1-6/5-8--5-8-7-3-66*66---5-8-7-3-1-6/5-8---5-8-7-3-666-666--|
D-5-8-7-3-1-----8-5-8-7-3---------5-8-7-3-1-----8---5-8-7-3----------|
PM
**  **

Verse 1
E----------------------------------|
B----------------------------------|
G----------------------------------|
D--5------------------8--------10--|
A--5------------------8--------10--|	x2
D--5------------------8--------10--|

Pre-Chorus
E---------------|
B---------------|
G--8----7----5--|
D--8----7----5--|
A-6----5----3--|
D---------------|

Chorus
E----------------------------------------------------------------------|
B----------------------------------------------------------------------|
G----------------------------------------------------------------------|
D--5*--5*--5*-----1-----1--3-3-3-3-3-5*--5*--5*----7-7-710-10-10-10--|
A--5*--5*--5*-----1-----1--3-3-3-3-3--5*--5*--5*----7-7-7-10-10-10-10--| x2
D--5*--5*--5*-----1-----1--3-3-3-3-3-5*--5*--5*----7-7-7-10-10-10-10--|

Play Second half of Intro
[ Tab from: http://www.guitaretab.com/t/thousand-foot-krutch/52400.html ]
Verse 2
E------------------------------|
B------------------------------|
G------------------------------|
D--5---------8---5--8------10--|
A--5-----------5----8------10--| x2
D-5----------------8------10--|

Pre-Chorus
Chorus

Bridge
E---------------------------------------------------------------------------|
B-----------------------------8-8-----8-8-----------------------------------|
G-------12-12-------12-12-----7-7-----7-7------8-8-----8-8-----5-5-----5-5--|
D-10-10-12-12-10-10-12-12-5-5-5-5-5-5-5-5--6-6-8-8-6-6-8-8-3-3-5-5-3-3-5-5--|
A-10-10-10-10-10-10-10-10-5-5-----5-5------6-6-6-6-6-6-6-6-3-3-3-3-3-3-3-3--|
D-10-10-------10-10-------5-5-----5-5------6-6-----6-6-----3-3-----3-3------| x2

E-------------------------------------------------------------------------|
B-----------------------------8-------8-----------------------------------|
G-------12----------12--------7-------7--------8-------8-------5----------|
D-10-10-12-10-10-10-12-10-5-5-5-5-5-5-5-5--6-6-8-6-6-6-8-6-3-3-5-3-3------|
A-10-10-10-10-10-10-10-10-5-5---5-5-5---5--6-6-6-6-6-6-6-6-3-3-3-3-3------|
D-10-10----10-10-10----10-5-5---5-5-5---5--6-6---6-6-6---6-3-3---3-3------|


----------------|
----------------|
-10-10-10-10-10-|
-10-10-10-10-10-|
-8--8--8--8-8--|
----------------|
You can end the bridge with either or, just play one over ending over the other

Chorus
Intro x2

for the part of the chorus where it goes:
D--5*-5*-5*--|
A--5*-5*-5*--|
D--5*-5*-5*--|

You could replace it with:
G--7---------|
D--7--8--5---|
A--5--8--5---|
D-----8--5--|

Or whatever, it doesn't really matter.
So that's the tab...I've borrowed from a few and learned from my friend who knows
all of it, but there is no full version for the song up, so now there is.  Peace

SSj
Related for Faith Love And Happiness tab