Song name
# A B C D E F G H I J K L M N O P Q R S T U V W X Y Z

Thousand Foot Krutch - Step To Me tab

-------------------------------------------------------------------------------
			    Step to Me - Thousand Foot Krutch
-------------------------------------------------------------------------------


Tuning: Drop D (D A D G B e)

The intro uses really cool effect.  I'm not even 100% sure how they do it.
It sounds like there is either 2 guitars for this part or they are
using some kind of tube delay or something.

Before judging this tab, please read the notes at the bottom of the tab.


Intro: (0:01)

   FX|-------------             FX|-------------
e|----------------------------------------------------------------|
B|----------------------------------------------------------------|
G|-4-4-4-4--4-4-4-4--4-4-4-4----5-5-5-5--5-5-5-5--5-5-5-5---------|
D|----------------------------------------------------------------|
A|-2-2-2-2--2-2-2-2--2-2-2-2----3-3-3-3--3-3-3-3--3-3-3-3---------|
D|----------------------------------------------------------------|

   FX|-------------
e|----------------------------------------------------------------|
B|----------------------------------------------------------------|
G|-4-4-4-4--4-4-4-4--4-4-4-4----7-7-7-7----5-5-5-5-4-4-4----------|
D|----------------------------------------------------------------|
A|-2-2-2-2--2-2-2-2--2-2-2-2----5-5-5-5----3-3-3-3-2-2-2----------|
D|----------------------------------------------------------------|
                      NOTE: #1 |------------------------|

Heavy Part after Intro: (0:09)
e|----------------------------------------------------------------|
B|----------------------------------------------------------------|
G|----------------------4-4-4-4-----------------------5-5-5-5-----|
D|-0h2--2-2--2-2-2p0-0-----------0h2--2-2--2-2-2p0-0--------------|
A|-0h2--2-2--2-2-2p0-0--2-2-2-2--0h2--2-2--2-2-2p0-0--3-3-3-3-----|
D|-0h2--2-2--2-2-2p0-0-----------0h2--2-2--2-2-2p0-0--------------|
        PM|                           PM|

e|----------------------------------------------------------------|
B|----------------------------------------------------------------|
G|----------------------4-4-4-4----------12--12-------------------|
D|-0h2--2-2--2-2-2p0-0-----------10--10--12--12---9---7---5---7---|
A|-0h2--2-2--2-2-2p0-0--2-2-2-2--10--10--10--10---9---7---5---7---|
D|-0h2--2-2--2-2-2p0-0-----------10--10--10--10---9---7---5---7---|
{       PM|             NOTE: #2|------------------------------|
e|----------------------------------------------------------------|
B|----------------------------------------------------------------|
G|---------------------------------------7-7-7-7--5-5-5-5-4-4-4---|
D|----------------------------------------------------------------|
A|---------------------------------------5-5-5-5--3-3-3-3-2-2-2---|
D|----------------------------------------------------------------|
                                              

Verse: (0:39)(1:29)
e|----------------------------------------------------------------|
B|----------------------------------------------------------------|
G|----------------------4-4-4-4-----------------------5-5-5-5-----|
D|-0h2--2-2--2-2-2p0-0--------------------------------------------|
A|-0h2--2-2--2-2-2p0-0--2-2-2-2--0h2--2-2--2-2-2p0-0--3-3-3-3-----|
D|-0h2--2-2--2-2-2p0-0-----------0h2--2-2--2-2-2p0-0--------------|
        PM|                           PM|
e|----------------------------------------------------------------|
B|----------------------------------------------------------------|
G|----------------------4-4-4-4----------12--12-------------------|
D|-0h2--2-2--2-2-2p0-0-----------10--10--12--12-------------------|
A|-0h2--2-2--2-2-2p0-0--2-2-2-2--10--10--10--10-------------------|
D|-0h2--2-2--2-2-2p0-0-----------10--10--10--10-------------------|
{       PM|             NOTE: #2|--------------|
e|----------------------------------------------------------------|
B|----------------------------------------------------------------|
G|---------------------------------------7-7-7-7------------------|
D|----------------------------------------------------------------|
A|---------------------------------------5-5-5-5------------------|
D|----------------------------------------------------------------|


Chorus: (0:49)(1:39)(2:19) Always play this 2X
e|----------------------------------------------------------------|
B|----------------------------------------------------------------|
G|----------------------------------------------------------------|
D|-2--2--2-2-2--2p0-5-5----0--0--0-0-0--0-0-0---------------------|
A|-2--2--2-2-2--2p0-5-5----0--0--0-0-0--0-0-0---------------------|
D|-2--2--2-2-2--2p0-5-5----0--0--0-0-0--0-0-0---------------------|
{  NOTE: #2 (whole chorus)       NOTE: #3  |---|(guitar 2 only)
e|----------------------------------------------------------------|
B|----------------------------------------------------------------|
G|----------------------------------------------------------------|
D|---------------------------------------------4------------------|
A|------------------------------------------5h7-------------------|
D|----------------------------------------------------------------|

e|----------------------------------------------------------------|
B|----------------------------------------------------------------|
G|----------------------------------------------------------------|
D|-2--2--2-2-2--2p0-5-5----0--0--10-10-10-10-10-10-10-10----------|
A|-2--2--2-2-2--2p0-5-5----0--0--10-10-10-10-10-10-10-10----------|
D|-2--2--2-2-2--2p0-5-5----0--0--10-10-10-10-10-10-10-10----------|
{  NOTE: #2 (whole chorus)
e|----------------------------------------------------------------|
B|----------------------------------------------------------------|
G|-------------------------------12-12-12-12-12-12-12-12----------|
D|----------------------------------------------------------------|
A|-------------------------------10-10-10-10-10-10-10-10----------|
D|----------------------------------------------------------------|

Repeat the Verse section
Repeat the Chorus section

Interlude:  Use a Flanger for this part. (2:06)
e|----------------------------------------------------------------|
B|----------------------------------------------------------------|
G|-3-3-3-3---3-3-3-3---3-3----------3-3-3-3---3-3-3-3---3-3-------|
D|----------------------------------------------------------------|
A|-1-1-1-1---1-1-1-1---1-1----------1-1-1-1---1-1-1-1---1-1-------|
D|----------------------------------------------------------------|

Repeat the Chorus section

Outro: (2:39)
e|----------------------------------------------------------------|
B|----------------------------------------------------------------|
G|----------------------------------------------------------------|
D|-0h2--2-2--2-2-2p0-0-----------0h2--2-2--2-2-2p0-0--------------|
A|-0h2--2-2--2-2-2p0-0-----------0h2--2-2--2-2-2p0-0--------------|
D|-0h2--2-2--2-2-2p0-0-----------0h2--2-2--2-2-2p0-0--------------|
        PM|                           PM|
              NOTE: #4|---\/---|
e|----------------------------------------------------------------|
B|----------------------------------------------------------------|
G|----------------------4-4-4-4----------12--12-------------------|
D|-0h2--2-2--2-2-2p0-0-----------10--10--12--12---9---7---5---7---|
A|-0h2--2-2--2-2-2p0-0--2-2-2-2--10--10--10--10---9---7---5---7---|
D|-0h2--2-2--2-2-2p0-0-----------10--10--10--10---9---7---5---7---|
{       PM|             NOTE: #2|------------------------------|
e|----------------------------------------------------------------|
B|----------------------------------------------------------------|
G|---------------------------------------7-7-7-7--5-5-5-5-4-4-4---|
D|----------------------------------------------------------------|
A|---------------------------------------5-5-5-5--3-3-3-3-2-2-2---|
D|----------------------------------------------------------------|

e|----------------------------------------------------------------|
B|----------------------------------------------------------------|
G|----------------------4-4-4-4-----------------------5-5-5-5-----|
D|-0h2--2-2--2-2-2p0-0-----------0h2--2-2--2-2-2p0-0--------------|
A|-0h2--2-2--2-2-2p0-0--2-2-2-2--0h2--2-2--2-2-2p0-0--3-3-3-3-----|
D|-0h2--2-2--2-2-2p0-0-----------0h2--2-2--2-2-2p0-0--------------|
        PM|                           PM|

e|----------------------------------------------------------------|
B|----------------------------------------------------------------|
G|----------------------4-4-4-4----------12--12-------------------|
D|-0h2--2-2--2-2-2p0-0-----------10--10--12--12---9---7---5---7---|
A|-0h2--2-2--2-2-2p0-0--2-2-2-2--10--10--10--10---9---7---5---7---|
D|-0h2--2-2--2-2-2p0-0-----------10--10--10--10---9---7---5---7---|
{       PM|             NOTE: #2|------------------------------|
e|----------------------------------------------------------------|
B|----------------------------------------------------------------|
G|---------------------------------------7-7-7-7--5-5-5-5-4-4-4---|
D|----------------------------------------------------------------|
A|---------------------------------------5-5-5-5--3-3-3-3-2-2-2---|
D|----------------------------------------------------------------|


NOTES:
 1-This would be why I think it is has delay.  If you listen the quieter parts
   or the FX sound is being played before the actual distortion (louder) guitar
   In this spot.  So I did NOT tab out the quiet guitar here.

 2-The part above is guitar 1 and the part below is guitar 2.

 3-This only applies for Guitar 2.  This guitar is so quiet that it can be very
   hard to hear.  So you could get away without playing this, but it is in
   there for sure.

 4-This is using a panned effect.  It shifts between the speakers everytime.
   Didn't know if anyone would care for this bit of information.

|FX|-The Effects sound at the beginning of the song.
|PM|-Palm mute
|{ |-Connects Guitar 1 and Guitar 2
|h |-hammer-on
|p |-pull off.
===============================================================================
Tap to rate this tab
# A B C D E F G H I J K L M N O P Q R S T U V W X Y Z