Guitaretab - guitar tabs
Song name
# A B C D E F G H I J K L M N O P Q R S T U V W X Y Z

Thousand Foot Krutch - Alternate Song tab

Band- Thousand Foot Krutch
Song- The Alternate Song

Song order
1. Intro/verse-8x
2. Chorus-4x
3. Intro/verse-6x
4. Chorus-6x
5. Intro/verse-5x
6. Chorus-9x

Intro/verse- Itís slightly different each time but this is the basic
progression
[ Tab from: http://www.guitaretab.com/t/thousand-foot-krutch/71363.html ]
e------------------------------------------------------------------------|
B------------------------------------------------------------------------|
G------------------------------------------------------------------------|
D----------------------2---2---2h4-2--------------------2-2-2---1h2-1----|
A---2---2---2---2-2-------------------4---4---4---4-4--------------------|
E------------------------------------------------------------------------|


Chorus(Listen to CD for exact rhythm)

e--------------------------------------------------------------------------|
B--------------------------------------------------------------------------|
G-------------------9---9---9---9---------------------------9---9---8---8--|
D-9---9---9---9---9---9---9---9---11---11---11---11---9---9---8---8--------|
A-9---9---9---9---7---7---7---7---11---11---11---11---7---7---6---6--------|
E-7---7---7---7----------------------9----9----9-----9---------------------|
Related for Alternate Song tab