Song name
# A B C D E F G H I J K L M N O P Q R S T U V W X Y Z

Thousand Foot Krutch - Breather tab

Highlighted       Show chord diagrams
Band- Thousand Foot Krutch
Song- Breather

Verse
D G E G E G A

PreChorus
D G E G A

Other Verse
C# F# E F# E F# A

Chorus
A

Solo:
guitar1(after 4x of this, play the verse)
[--------------------------------------------------------]
[--------------------------------------------------------] 4x
[7-7-7-7-7-7-7-7--7-7-7-7-6-7--7-7-7-7-6-7--7-7-7-7-9-7--]
[--------------------------------------------------------]
[--------------------------------------------------------] 4x
[--------------------------------------------------------]
guitar2
[12----------12----------|--------------------------------]
[---15-14-15----15-12----|3-5-3-5-3-5-6-5--3-5-3-5-6-8-6-5]
[---------------------14-|--------------------------------]
[------------------------|--------------------------------]
[------------------------|--------------------------------]
[------------------------|--------------------------------]
Tap to rate this tab
# A B C D E F G H I J K L M N O P Q R S T U V W X Y Z