Song name
# A B C D E F G H I J K L M N O P Q R S T U V W X Y Z

Thousand Foot Krutch - Moment Of The Day tab

Band- Thousand Foot Krutch
Song- Moment Of The Day

Drop D tuning

Verse 1

E---------------------------------------|
B---------------------------------------|
G---------------------------------------|
D--44444-1-1-9999-----------------------|
A--44444-1-1-9999-----------------------|
D--44444-1-1-9999-----------------------|

Chorus

E---------------------------------------|
B---------------------------------------|
G---------------------------------------|
D--44-1-1-99-11-11----------------------|
A--44-1-1-99-11-11----------------------|
D--44-1-1-99-11-11----------------------|

Verse 2

Same as verse 1
Tap to rate this tab
# A B C D E F G H I J K L M N O P Q R S T U V W X Y Z