Song name
# A B C D E F G H I J K L M N O P Q R S T U V W X Y Z

Thousand Foot Krutch - Rhyme Animal tab

Band- Thousand Foot Krutch
Song- Rhyme Animal

Verse/Main Riff(play around with this, this is as close as I can get)
e[-----------------------------------------------------------]
b[-----------------------------------------------------------]
g[--x-x------11-11-11-11---x-x------9b11-(11)-(11)b9-7-------]
d[9-x-x-9h12-------------9-x-x-9h12--------------------------]
a[-----------------------------------------------------------]
e[-----------------------------------------------------------]
Chorus
e[-----------------------------------------------------------]
b[-----------------------------------------------------------]
g[-------------9--9-9-9-9-9-9--------------------------------]
d[-9-x-x-9-x-9-9--9-9-9-9-9-9--------------------------------]
a[-9-x-x-9-x-9-7--7-7-7-7-7-7--------------------------------]
e[-7-x-x-7-x-7-----------------------------------------------]

Solo
e[----------------------------------x-x-xx-------------------]
b[----------------------------------x-x-xx-------------------]
g[-------------------------9b11-7---x-x-xx---7h9-9b11-7------]
d[7-(16 times)-7h9-9-7h9p7--------9-x-x-xx-9------------9-7h9]
a[-----------------------------------------------------------]
e[-----------------------------------------------------------]

e[---x-x-xx--------------------------------------------------]
b[---x-x-xx-------------------------------------------x-x----]
g[---x-x-xx-7-------9b11-11-11-10-10-9-9-7------------x-x----]
d[-9-x-x-xx---9-7-9------------------------9-7-7h9--9-x-x-7h9]
a[-----------------------------------------------------------]
e[-----------------------------------------------------------]

e[-----------------------------------------------------------]
b[x----------------------------------------------------------]
g[x-9b11-11-11-9-7-------------------------------------------]
d[x----------------9-----------------------------------------]
a[-----------------------------------------------------------]
e[-----------------------------------------------------------]

Tap to rate this tab
 
# A B C D E F G H I J K L M N O P Q R S T U V W X Y Z