Song name
# A B C D E F G H I J K L M N O P Q R S T U V W X Y Z

Thousand Foot Krutch - Sweet Unknown tab

Help us improve GuitareTab! Take a short survey!
Band- Thousand Foot Krutch
Song- Sweet Unknown

[0:02-0:31]
e[-----------------------------------------------------------]
b[-----------------------------------------------------------]
g[-----------------------------------------------------------]
d[-----------------------------------------------------------]
a[11-11-11-12-12-12--12-12--11-11-11-9-9-9--9-9--12-12-12-11-]
e[-----------------------------------------------------------]
                         
e[-----------------------------------------------------------]
b[-----------------------------------------------------------]
g[-----------------------------------------------------------]
d[-----------------------------------------------------------]
a[11-11--11-11--11-11--9-9-----------------------------------]
e[-----------------------------------------------------------]

[0:32-0:53]
e[---------------------------------------------------]
b[---------------------------------------------------]
g[---------------------------------------------------] ** = A LOT of times,
d[-13-13-13-13-14------13-----11----9----------------] Occasionally sliding
a[-11-11-11-11-12(12x)-11(6x)-9(8x)-7**--------------] down a fret and back
e[---------------------------------------------------] up again..
[0:54-1:32]
e[-----------------------------------------------------------]
b[-----------------------------------------------------------]
g[9-11-------------------------------------------------------]
d[9-11-------------------------------------------------------]
a[7-9---9-9-9-11-11-11--11-11-9-9-9-7-7-7--7-7---------------]
e[-----------------------------------------------------------]
[2:59-Ending]
e[-----------------------------------------------------------]
b[-----------------------------------------------------------]
g[---5-9-7---------------------------------------------------]
d[-7-5-9-7---------------------------------------------------]
a[-7-3-7-5---------------------------------------------------]
e[-5---0-----------------------------------------------------]

Related for Sweet Unknown tab