Song name
# A B C D E F G H I J K L M N O P Q R S T U V W X Y Z

Thousand Foot Krutch - Thats What People Do tab

Help us improve GuitareTab! Take a short survey!
Band- Thousand Foot Krutch
Song- That's What People Do

Verse                    Pre-Chorus
  F#  F#  D#m   B         F# D#m  B
------------------------|---------------|
------------------------|---------------|
---------------11-------|---------------|
-11---11---8---9--------|-11--8--4------|
-9----9----6---9--------|-9---6--2------|
-9----9----6------------|-9---6--2------|

Chorus                                  Post-Chorus
 F# D#m  B   C#   F# D#m  B  D#m C#      F# D#m E  F#
---------------------------------------|-------------------|
---------------------------------------|-------------------|
---------------------------------------|-------------------|
11---8---4---6---11---8---4---8-6------|-11--8--9--11------|
-9---6---2---4----9---6---2---6-4------|--9--6--7---9------|
-9---6---2---4----9---6---2---6-4------|--9--6--7---9------|
Related for Thats What People Do tab