Song name
# A B C D E F G H I J K L M N O P Q R S T U V W X Y Z

Thousand Foot Krutch - Flame In All Of Us tab

Title: The Flame In All of Us (Intro)
Band: Thousand Foot Krutch
Tabbed by: Jared Lindstrom
Date Tabbed: 9/01/07

Drop D Tuning

E[---------------------------------------------------]
B[---------------------------------------------------]
G[---------------------------------------------------]
D[---------------------------------------------------] 
A[---------------------------------------------------]
D[---0--3-5--0--8-7-0--10--0---5--3------------------]
                                                        X2
E[---------------------------------------------------]
B[---------------------------------------------------]
G[---------------------------------------------------]
D[-------------------------0--5--7--3----------------] 
A[-------------------------0--5--7--3----------------]
D[---0--3-5--0--8-7-0--10--0--5--7--3----------------]
Tap to rate this tab
 
# A B C D E F G H I J K L M N O P Q R S T U V W X Y Z