Guitaretab - guitar tabs
Song name
# A B C D E F G H I J K L M N O P Q R S T U V W X Y Z

Thousand Foot Krutch - Wish You Well Acoustic tab

Here is the whole song in the order it is played according to the TFK youtube video. 
is my first tab so corrections are welcome.
Email: Anarchypyro93@gmail.com


[-----------------------------------------------------------]
[-----------0-----------8--------------0-----------0-----0--]
[------0------------0-----7---7------0---0-----0-----0-5----]
[----9---10-------7---7-----7------5---------5---5----------]
[--7------------5----------------3---------3----------------]
[-----------------------------------------------------------]

[-----------------------------------------------------------]
[-----------0-----------8--------------0-----------0-----0--]
[------0------------0-----7---7------0---0-----0-----0-5----]
[----9---10-------7---7-----7------5---------5---5----------]
[--7------------5----------------3---------3----------------]
[-----------------------------------------------------------]

[--------------------------------------------------------0--]
[-----------0-----------8--------------0-----------0---0----]
[------0------------0-----7---7------0---0-----0-----0------]
[----9---10-------7---7-----7------5---------5---5----------]
[--7------------5----------------3---------3----------------]
[-----------------------------------------------------------]

[--------------------------------------------------------0--]
[-----------0-----------8--------------0-----------0---0----]
[------0------------0-----7---7------0---0-----0-----0------]
[----9---10-------7---7-----7------5---------5---5----------]
[--7------------5----------------3---------3----------------]
[-----------------------------------------------------------]

[----------------------------------------------------]
[----------------------------------------------------]
[------0----------0----------0----------0--------0---]
[----0---0------0---0------0---0------0---0----0---0-]
[------------5----------3----------7---------5-------]
[--3-------------------------------------------------]

[----------------------------------------------------]
[----------------------------------------------------]
[------0----------0----------0----------0--------0---]
[----0---0------0---0------0---0------0---0----0---0-]
[------------------------3----------7--------5-------]
[--3---------2---------------------------------------]

[-----------------------------------------------------------]
[--------------------------------------0------------0-------]
[------0------------0------------ -0-----0------0------0----]
[----0---0--------0---0----------0---0-----0------0---------]
[---------------2--------------3--------------3-----------0-]
[--3------------0-------------------------------------------]

[-----------------------------------------------------------]
[--------------------------------------0------------0-------]
[------0------------0------------ -0-----0------0------0----]
[----0---0--------0---0----------0---0-----0------0---------]
[---------------2--------------3--------------3-----------0-]
[--3------------0-------------------------------------------]

[-----------------------------------------------------------]
[-----------0-----------8--------------0-----------0-----0--]
[------0------------0-----7---7------0---0-----0-----0-5----]
[----9---10-------7---7-----7------5---------5---5----------]
[--7------------5----------------3---------3----------------]
[-----------------------------------------------------------]

[-----------------------------------------------------------]
[-----------0-----------8--------------0-----------0-----0--]
[------0------------0-----7---7------0---0-----0-----0-5----]
[----9---10-------7---7-----7------5---------5---5----------]
[--7------------5----------------3---------3----------------]
[-----------------------------------------------------------]

[----------------------------------------------------]
[----------------------------------------------------]
[------0----------0----------0----------0--------0---]
[----0---0------0---0------0---0------0---0----0---0-]
[------------5----------3----------7---------5-------]
[--3-------------------------------------------------]

[----------------------------------------------------]
[----------------------------------------------------]
[------0----------0----------0----------0--------0---]
[----0---0------0---0------0---0------0---0----0---0-]
[------------------------3----------7--------5-------]
[--3---------2---------------------------------------]
[ Tab from: http://www.guitaretab.com/t/thousand-foot-krutch/96407.html ]
[-----------------------------------------------------------]
[--------------------------------------0------------0-------]
[------0------------0------------ -0-----0------0------0----]
[----0---0--------0---0----------0---0-----0------0---------]
[------------------------------3--------------3-----------0-]
[--3------------0-------------------------------------------]

[---------------------------------------------------------------]
[----------0---------------0---------------0------------0-------]
[------0-----0---0-----0-----0---0-----0-----0------0------0----]
[----0---0-----0-----0---0-----0-----0---0-----0------0---------]
[----------------------------------3-------------3-----------0--]
[--3---------------0--------------------------------------------]

[-----------------------------------------------------------------]
[-----------------------------------------------------------------]
[-------------------5-----5-----5---------------------7--7--5--5--]
[--2-x-x-2-x-x-2-xx-5-x-x-5-x-x-5-xx-2-x-x-2-x-x-2-xx-7--7--5--5--]
[--2-x-x-2-x-x-2-xx-3-x-x-3-x-x-3-xx-2-x-x-2-x-x-2-xx-5--5--3--3--]
[--0-x-x-0-x-x-0-xx---x-x---x-x---xx-0-x-x-0-x-x-0-xx-------------]

[-----------------------------------------------------------------]
[-----------------------------------------------------------------]
[-------------------5-----5-----5---------------------7--7--5--5--]
[--2-x-x-2-x-x-2-xx-5-x-x-5-x-x-5-xx-2-x-x-2-x-x-2-xx-7--7--5--5--]
[--2-x-x-2-x-x-2-xx-3-x-x-3-x-x-3-xx-2-x-x-2-x-x-2-xx-5--5--3--3--]
[--0-x-x-0-x-x-0-xx---x-x---x-x---xx-0-x-x-0-x-x-0-xx-------------]

[---------------------------------------------------------------]
[--3----3--3--3-3-3----3--3--3-3-3----3--3--3-3-3----3--3--3-3--]
[--0----0--0--0-0-2----2--2--2-2-0----0--0--0-0-2----2--2--2-2--]
[--0--x-0--0--0-0-0--x-0--0--0-0-x--x-x--x--x-x-2--x-2--2--2-2--]
[--x--x-x--x--x-x----x-----------3--x-3--3--3-3-0--x-0--0--0-0--]
[--3--x-3--3--3-3----x--------------x--------------x------------]

[---------------------------------------------------------------]
[--3----3--3--3-3-3----3--3--3-3-3----3--3--3-3-3----9--9--7-7--]
[--0----0--0--0-0-2----2--2--2-2-0----0--0--0-0-2----9--9--7-7--]
[--0--x-0--0--0-0-0--x-0--0--0-0-x--x-x--x--x-x-2--x-7--7--5-5--]
[--x--x-x--x--x-x----x-----------3--x-3--3--3-3-0--x-0--0--0-0--]
[--3--x-3--3--3-3----x--------------x--------------x------------]

[---------------------------------------------------------------]
[--3----3--3--3-3-3----3--3--3-3-3----3--3--3-3-3----3--3--3-3--]
[--0----0--0--0-0-2----2--2--2-2-0----0--0--0-0-2----2--2--2-2--]
[--0--x-0--0--0-0-0--x-0--0--0-0-x--x-x--x--x-x-2--x-2--2--2-2--]
[--x--x-x--x--x-x----x-----------3--x-3--3--3-3-0--x-0--0--0-0--]
[--3--x-3--3--3-3----x--------------x--------------x------------]

[------------------------------------------------------------]
[--3----3--3--3-3-3----3--3--3-3-3----3--3--3-3-3----9-9~---]
[--0----0--0--0-0-2----2--2--2-2-0----0--0--0-0-2----9--9~---]
[--0--x-0--0--0-0-0--x-0--0--0-0-x--x-x--x--x-x-2--x-7-7~---]
[--x--x-x--x--x-x----x-----------3--x-3--3--3-3-0--x-0--0~---]
[--3--x-3--3--3-3----x--------------x--------------x---------]

[---------------------------------------------------]
[---------------------------------------------------]
[------0-----0-----0-----0-----0-----0-----0-----0--]
[----0----0------0----0------0----0------0-----0----]
[--------------5-----------3-----------7-----5------]
[--3------------------------------------------------]

[--------------------------------------------------------]
[--------------------------------------------------------]
[------0----0------0----0------0----0------0--------0----]
[----0---0-------0---0-------0---0-------0---0----0---0--]
[--------------------------3-----------7--------5--------]
[--3-----------2-----------------------------------------]

[-----------------------------------------------------------]
[--------------------------------------0------------0-------]
[------0------------0------------ -0-----0------0------0----]
[----0---0--------0---0----------0---0-----0------0---------]
[---------------2--------------3--------------3-----------0-]
[--3------------0-------------------------------------------]

[-----------------------------------------------------------]
[--------------------------------------0------------0-------]
[------0------------0------------ -0-----0------0------0----]
[----0---0--------0---0----------0---0-----0------0---------]
[---------------2--------------3--------------3-----------3~]
[--3------------0-------------------------------------------]
Related for Wish You Well Acoustic tab