Guitaretab - guitar tabs
Song name
# A B C D E F G H I J K L M N O P Q R S T U V W X Y Z

Thousand Foot Krutch - The Safest Place tab

Thousand Foot Krutch-The Safest Place
Album-The Flame In All Of Us
Tabbed by: overflowme/schecter777
Email: strummer99@cox.net

All guitars tuned B-F#-B-E-G#-C#

Key:
.=palm mute
x=mute
~=let ring
s=slide
v=vibrato

Intro
[------------------------------------------------------------]
[------------------------------------------------------------]
[------------------------------------------------------------]
[--0-0-0-0-3-0-5-0-8-8--0-3-5-0-0-0-0-3-0-5--0-8-8--3--3--]
[--0-0-0-0-3-0-5-0-8-8--0-3-5-0-0-0-0-3-0-5--0-8-8--3--3--]
[--0-0-0-0-3-0-5--0-8-8--0-3-5-0-0-0-0-3-0-5--0-8-8--3--3--]

[-------------------------------------------------------------]
[-------------------------------------------------------------]
[-------------------------------------------------------------]
[--0-0-0-0-3-0-5-0-8-8--0-3-5-0-0-0-0-3-0-5--0-8-7--0-3-5--]
[--0-0-0-0-3-0-5-0-8-8--0-3-5-0-0-0-0-3-0-5--0-8-7--0-3-5--]
[--0-0-0-0-3-0-5--0-8-8--0-3-5-0-0-0-0-3-0-5--0-8-7--0-3-5--]

Verse 1
[---------------------------------------------------------]
[---------------------------------------------------------]
[---------------------------------------------------------]
[---------------------------------------------------------]
[---------------------------------------------------------]
[--0--0-0-3--0-5--0-8--0-3-5-0--0-0-3--0-5--0-8-7--0-3-5--]
   .  . . .  . .  . .  . . . .  . . .  . .  . . .  . . .
[--------------------------------------------------------]
[--------------------------------------------------------]
[--------------------------------------------------------]
[--------------------------------------------------------]
[--------------------------------------------------------]
[--0--0-0-3--0-5--0-8--0-3-5-0--0-0-3--0-5--0-8-8--3--3--]
   .  . . .  . .  . .  . . . .  . . .  . .  . . .  .  .
[---------------------------------------------------------]
[---------------------------------------------------------]
[---------------------------------------------------------]
[---------------------------------------------------------]
[---------------------------------------------------------]
[--0--0-0-3--0-5--0-8--0-3-5-0--0-0-3--0-5--0-8-7--0-3-5--]
   .  . . .  . .  . .  . . . .  . . .  . .  . . .  . . .
[---------------------------------------------------------]
[---------------------------------------------------------]
[---------------------------------------------------------]
[---------------------------------------------------------]
[---------------------------------------------------------]
[--0--0-0-3--0-5--0-8--0-3-5-0--0-0-3--0-5--0-8-7--0-3-5--]
   .  . . .  . .  . .  . . . .  . . .  . .  . . .  . . .
Pre-Chorus
[--------------------------------------------------]
[--------------------------------------------------]
[--------------------------------------------------]
[--------------------------------------------------]
[----------5----------5-----------5----------5--3--]
[--0-3-5-0----0-3-5-0-----0-3-5-0----0-3-5-0-------]

[----------------------------------------------------------]
[----------------------------------------------------------]
[----------------------------------------------------------]
[------------------------x-x-x-x---------------------------]
[----------5----------5--x-x-x-x---------5----------5--3~--]
[--0-3-5-0----0-3-5-0----x-x-x-x-0-3-5-0----0-3-5-0--------]

Chorus
[-----------------------------------------------------]
[-----------------------------------------------------]
[-----------------------------------------------------]
[--0--0-0-0-1--1-1-1-1--1-1-8--8-8-8-3--3-3-3-3--3-3--]
[--0--0-0-0-1--1-1-1-1--1-1-8--8-8-8-3--3-3-3-3--3-3--]
[--0--0-0-0-1--1-1-1-1--1-1-8--8-8-8-3--3-3-3-3--3-3--]

[-------------------------------------------------]
[-------------------------------------------------]
[-------------------------------------------------]
[--0--0-0-0-7--7-7-7-7--7-7-5--5-5-5-3--x-3--x-3--]
[--0--0-0-0-7--7-7-7-7--7-7-5--5-5-5-3--x-3--x-3--]
[--0--0-0-0-7--7-7-7-7--7-7-5--5-5-5-3--x-3--x-3--]

[-----------------------------------------------------]
[-----------------------------------------------------]
[-----------------------------------------------------]
[--0--0-0-0-1--1-1-1-1--1-1-8--8-8-8-3--3-3-3-3--3-3--]
[--0--0-0-0-1--1-1-1-1--1-1-8--8-8-8-3--3-3-3-3--3-3--]
[--0--0-0-0-1--1-1-1-1--1-1-8--8-8-8-3--3-3-3-3--3-3--]
[ Tab from: http://www.guitaretab.com/t/thousand-foot-krutch/97484.html ]
[-------------------------------------------------]
[-------------------------------------------------]
[-------------------------------------------------]
[--0--0-0-0-7--7-7-7-7--7-7-3--3-3-3-5--x-5--x-5--]
[--0--0-0-0-7--7-7-7-7--7-7-3--3-3-3-5--x-5--x-5--]
[--0--0-0-0-7--7-7-7-7--7-7-3--3-3-3-5--x-5--x-5--]

Post-Chorus
[-------------------------------------------------------------]
[-------------------------------------------------------------]
[-------------------------------------------------------------]
[--0-0-0-0-3-0-5-0-8-8--0-3-5-0-0-0-0-3-0-5--0-8-7--0-3-5--]
[--0-0-0-0-3-0-5-0-8-8--0-3-5-0-0-0-0-3-0-5--0-8-7--0-3-5--]
[--0-0-0-0-3-0-5--0-8-8--0-3-5-0-0-0-0-3-0-5--0-8-7--0-3-5--]

(Verse 1)

(Pre-Chorus)

Chorus 2
Gtr. 1
[--10~~-----------------------]2x
[-------10~-8~-----8~---------]
[--------------10~----10~-7~--]
[-----------------------------]
[-----------------------------]
[-----------------------------]

Gtr. 2
[-----------------------------------------------------]
[-----------------------------------------------------]
[-----------------------------------------------------]
[--0--0-0-0-1--1-1-1-1--1-1-8--8-8-8-3--3-3-3-3--3-3--]
[--0--0-0-0-1--1-1-1-1--1-1-8--8-8-8-3--3-3-3-3--3-3--]
[--0--0-0-0-1--1-1-1-1--1-1-8--8-8-8-3--3-3-3-3--3-3--]

[-------------------------------------------------]
[-------------------------------------------------]
[-------------------------------------------------]
[--0--0-0-0-7--7-7-7-7--7-7-5--5-5-5-3--x-3--x-3--]
[--0--0-0-0-7--7-7-7-7--7-7-5--5-5-5-3--x-3--x-3--]
[--0--0-0-0-7--7-7-7-7--7-7-5--5-5-5-3--x-3--x-3--]

[-----------------------------------------------------]
[-----------------------------------------------------]
[-----------------------------------------------------]
[--0--0-0-0-1--1-1-1-1--1-1-8--8-8-8-3--3-3-3-3--3-3--]
[--0--0-0-0-1--1-1-1-1--1-1-8--8-8-8-3--3-3-3-3--3-3--]
[--0--0-0-0-1--1-1-1-1--1-1-8--8-8-8-3--3-3-3-3--3-3--]

[-------------------------------------------------]
[-------------------------------------------------]
[-------------------------------------------------]
[--0--0-0-0-7--7-7-7-7--7-7-3--3-3-3-5--x-5--x-5--]
[--0--0-0-0-7--7-7-7-7--7-7-3--3-3-3-5--x-5--x-5--]
[--0--0-0-0-7--7-7-7-7--7-7-3--3-3-3-5--x-5--x-5--]

Bridge
[-----------------------------------------------------]
[-----------------------------------------------------]
[-----------------------------------------------------]
[-----------------------------------------------------]
[-----------------------------------------------------]
[--0--s7--s10~~--0-3v--0-3v--0--s7--s5~~--0-0-0-3v-3--]

[-----------------------------------------------------]
[-----------------------------------------------------]
[-----------------------------------------------------]
[-----------------------------------------------------]
[-----------------------------------------------------]
[--0--s7--s10~~--0-3v--0-3v--0--s7--s5~~--0-3v--0-3v--]

[------------------------------------]
[------------------------------------]
[------------------------------------]
[------------------------------------]
[------------------------------------]
[--0-3-5-0-8-7-0-10-8-7-5-7-0-3-5-3--]
   . . . . . . .  . . . . . . . . .
[-----------------------------------]
[-----------------------------------]
[-----------------------------------]
[-----------------------------------]
[-----------------------------------]
[--0-3-5-0-8-7-0-10-8-7-5-7-0-3--3--]
   . . . . . . .  . . . . . . .  .
[------------------------------------]
[------------------------------------]
[------------------------------------]
[------------------------------------]
[------------------------------------]
[--0-3-5-0-8-7-0-10-8-7-5-7-0-3-5-3--]
   . . . . . . .  . . . . . . . . .
[--------------------------------]
[--------------------------------]
[--------------------------------]
[-----------------------------3--]
[-----------------------------3--]
[--0-3-5-0-8-7-0-10-8-7-5-7-0-3--]
   . . . . . . .  . . . . . . 
[---------------------------------]4x
[---------------------------------]
[---------------------------------]
[--0--3-5-0-8-7-0-10-8-7-5-7-0-3--]
[--0--3-5-0-8-7-0-10-8-7-5-7-0-3--]
[--0--3-5-0-8-7-0-10-8-7-5-7-0-3--]

[-------------------]
[-------------------]
[-------------------]
[--0---0---x-x-x-x--]
[--0---0---x-x-x-x--]
[--0---0---x-x-x-x--]

(Chorus 2) 2x

Outro
Gtr. 1
[--10~~~~~--]
[---x~~~~~--]
[---7~~~~~--]
[-----------]
[-----------]
[-----------]

Gtr. 2
[-------------------------------------------------------------]
[-------------------------------------------------------------]
[-------------------------------------------------------------]
[--0-0-0-0-3-0-5-0-8-8--0-3-5-0-0-0-0-3-0-5--0-8-7--0-3-5--]
[--0-0-0-0-3-0-5-0-8-8--0-3-5-0-0-0-0-3-0-5--0-8-7--0-3-5--]
[--0-0-0-0-3-0-5--0-8-8--0-3-5-0-0-0-0-3-0-5--0-8-7--0-3-5--]
Related for The Safest Place tab