Song name
# A B C D E F G H I J K L M N O P Q R S T U V W X Y Z

Thousand Foot Krutch - My Own Enemy tab

Artist: Thousand Foot Krutch
Album: The Flame In All Of Us
Song: My Own Enemy (Track #7)

Tuning - Drop B


**Intro/Verse** [Hold up, oh no...]

|---------------------------------------------------|
|---------------------------------------------------|
|---------------------------------------------------|
|-0-x-0--3-2--0-x-0--3-2--0-x-0--3-2--0-x-0--3-2----|
|-0-x-0-------0-x-0-------0-x-0-------0-x-0--3-2----|
|-0-x-0-------0-x-0-------0-x-0-------0-x-0--3-2----|

**Pre-chorus** [This anger changes me...]

|--------------------------------------------------------------------------|
|--------------------------------------------------------------------------|
|--------------------------------------------------------------------------|
|---------------------------------------------0-x-0-0-2--0-x-0-0-2---------|
|---------------------------------------(x2)--0-x-0-0-2--0-x-0-0-2---------|
|-77777777-55555555-33333333-2222-0000--------0-x-0-0-2--0-x-0-0-2---------|

**Chorus** [I'm still my worst enemy...]

|--------------------------------------------------------------------------|
|--------------------------------------------------------------------------|
|--------------------------------------------------------------------------|
|-7-77-3-33-3-33-0-00-8-88-8-88---(x4)-------------------------------------|
|-7-77-3-33-3-33-0-00-8-88-8-88--------------------------------------------|
|-7-77-3-33-3-33-0-00-8-88-8-88--------------------------------------------|

**Outro** [My own enemy~...]

|--------------------------------------------------------------------------|
|--------------------------------------------------------------------------|
|--------------------------------------------------------------------------|
|-0-xx-0-2--0-xx-0-2-3--0-xx-0-2222--0-x-0-0-2--0-x-0-3-2------------------|
|-0-xx-0-2--0-xx-0-2-3--0-xx-0-2222--0-x-0-0-2--0-x-0-3-2------------------|
|-0-xx-0-2--0-xx-0-2-3--0-xx-0-2222--0-x-0-0-2--0-x-0-3-2------------------|


Enjoy.
Tap to rate this tab
 
# A B C D E F G H I J K L M N O P Q R S T U V W X Y Z