Song name
# A B C D E F G H I J K L M N O P Q R S T U V W X Y Z

Thousand Foot Krutch - New Drug tab

-------------------------------------------------------------------------------
			     New Drug - Thousand Foot Krutch
-------------------------------------------------------------------------------
Tabbed by: Zabita_Legacy X
Email: I_Liberate_I@yahoo.com

Tuning: Drop B

|--------------------------------------------------------------------------|
|--------------------------------------------------------------------------|
|--------------------------------------------------------------------------|
|-0-2-2-2--0-2-2-2--0-2-2-2-0-2-2-2--0-2-2-2-0-3---------------------------|
|--------------------------------------------------------------------------|
|--------------------------------------------------------------------------|

|--------------------------------------------------------------------------|
|--------------------------------------------------------------------------|
|--------------------------------------------------------------------------|
|-0-2-2-2--0-2-2-2--0-2-2-2-0-2-2-2--0-2-2-2-0-3---------------------------|
|-0-2-2-2--0-2-2-2--0-2-2-2-0-2-2-2--0-2-2-2-0-3---------------------------|
|-0-2-2-2--0-2-2-2--0-2-2-2-0-2-2-2--0-2-2-2-0-3---------------------------|

That's all I've figured out for this song.
Please; enjoy.


| /  slide up
| \  slide down
| h  hammer-on
| p  pull-off
| ~  vibrato
| +  harmonic
| x  Mute note
Tap to rate this tab
# A B C D E F G H I J K L M N O P Q R S T U V W X Y Z