Song name
# A B C D E F G H I J K L M N O P Q R S T U V W X Y Z

Threat Signal - A New Beginning tab

Acoustc Intro:

D]------------------------------------------------5------------------------|
A]--------3h5-------------3-------3----------------------------------------|
F]------------2---2--------------------------------------------------------|
C]----0---------------0-------------------0--------------------------------|
G]-------------------------------------------------------------------------|
C]-------------------------------------------------------------------------|

D]-------------------------------------------------------------------------|
A]--------3h5-------------3-------3----------------------------------------|
F]------------2---2-----------------------5-------4-------4h5p4---0--------|
C]----0---------------0----------------------------------------------------|
G]-------------------------------------------------------------------------|
C]-------------------------------------------------------------------------|

D]------------------------------------------------5------------------------|
A]--------3h5-------------3-------3----------------------------------------|
F]------------2---2--------------------------------------------------------|
C]----0---------------0-------------------0--------------------------------|
G]-------------------------------------------------------------------------|
C]-------------------------------------------------------------------------|

D]----------------------------------------5-------3-------3h5p3------------|
A]--------3h5-------------3-------3-------------------------------3--------|
F]------------2---2--------------------------------------------------------|
C]----0---------------0----------------------------------------------------|
G]-------------------------------------------------------------------------|
C]-------------------------------------------------------------------------|


Intro Solo:

D]----------------------------------------20-------------------------------|
A]----------18------18---------------18------18-17-------------------------|
F]----17-19--------------------17------------------------------------------|
C]-------------19------19-20------20---------------------------------------|
G]-------------------------------------------------------------------------|
C]-------------------------------------------------------------------------|

D]-------------------------------------------------------------------------|
A]-------18---------18---------------17---17-------------------------------|
F]----19----19-----------------18------------17----------------------------|
C]-------------19------19-20------20------------19-------------------------|
G]-------------------------------------------------------------------------|
C]-------------------------------------------------------------------------|   X4
Tap to rate this tab
# A B C D E F G H I J K L M N O P Q R S T U V W X Y Z