Song name
# A B C D E F G H I J K L M N O P Q R S T U V W X Y Z

Threat Signal - Through My Eyes tab

-------------------------------------------------------------------------------
			     Through My Eyes - Threat Signal
-------------------------------------------------------------------------------


Tabbed by: Alex
Email: xander1711@hotmail.com

Tuning: Drop C (C G C F A d)

Noticed there was no tab for this song so i decided to work out the little solo
bit of Through My Eyes (well not really solo, more the bridge but i can't class it as 
on UG)

Play this part repeatedly for about a minute


 Guitar I

d|--15------11------13------18\16------16\15------11------11/13--------------|
A|------13------13------13---------13---------13------13---------------------|
F|---------------------------------------------------------------------------|
C|---------------------------------------------------------------------------|x2
G|---------------------------------------------------------------------------|
C|---------------------------------------------------------------------------|

 Guitar II

d|---------------------------------------------------------------------------|
A|---------------------------------------------------------------------------|
F|---------------------------------------------------------------------------|
C|--5~-----------------------------------------------------------------------|
G|--3~-----------------------------------------------------------------------|
C|---------------------------------------------------------------------------|


 Guitar I

d|--15------11------13------18\16------16\15------11------11/13--------------|
A|------13------13------13---------13---------13------13---------------------|
F|---------------------------------------------------------------------------|
C|---------------------------------------------------------------------------|x2
G|---------------------------------------------------------------------------|
C|---------------------------------------------------------------------------|

 Guitar II

d|---------------------------------------------------------------------------|
A|---------------------------------------------------------------------------|
F|---------------------------------------------------------------------------|
C|---------------------------------------------------------------------------|
G|--6~-----------------------------------------------------------------------|
C|--6~-----------------------------------------------------------------------|


Guitar I

d|--15------11------13------18\16------16\15------11------11/13--------------|
A|------13------13------13---------13---------13------13---------------------|
F|---------------------------------------------------------------------------|
C|---------------------------------------------------------------------------|x2
G|---------------------------------------------------------------------------|
C|---------------------------------------------------------------------------|

 Guitar II

d|---------------------------------------------------------------------------|
A|---------------------------------------------------------------------------|
F|---------------------------------------------------------------------------|
C|--5~-----------------------------------------------------------------------|
G|--3~-----------------------------------------------------------------------|
C|---------------------------------------------------------------------------|


 Guitar I

d|--15------11------13------18\16------16\15------11------11/13--------------|
A|------13------13------13---------13---------13------13---------------------|
F|---------------------------------------------------------------------------|
C|---------------------------------------------------------------------------|
G|---------------------------------------------------------------------------|
C|---------------------------------------------------------------------------|

 Guitar II

d|---------------------------------------------------------------------------|
A|---------------------------------------------------------------------------|
F|---------------------------------------------------------------------------|
C|---------------------------------------------------------------------------|
G|--6~-----------------------------------------------------------------------|
C|--6~-----------------------------------------------------------------------|


 Guitar I

d|--15------11------13------18\16------16\15------11------11/13--------------|
A|------13------13------13---------13---------13------13---------------------|
F|---------------------------------------------------------------------------|
C|---------------------------------------------------------------------------|
G|---------------------------------------------------------------------------|
C|---------------------------------------------------------------------------|

 Guitar II

d|---------------------------------------------------------------------------|
A|---------------------------------------------------------------------------|
F|---------------------------------------------------------------------------|
C|---------------------------------------------------------------------------|
G|--3~--------------------------1~-------------------------------------------|
C|--3~--------------------------1~-------------------------------------------|


                     Then drums and everything kicks in.


 Guitar I

d|--15------11------13------18\16------16\15------11------11/13--------------|
A|------13------13------13---------13---------13------13---------------------|
F|---------------------------------------------------------------------------|
C|---------------------------------------------------------------------------|
G|---------------------------------------------------------------------------|
C|---------------------------------------------------------------------------|

 Guitar II

d|---------------------------------------------------------------------------|
A|---------------------------------------------------------------------------|
F|---------------------------------------------------------------------------|
C|----5-5-5-5---5------5-5---5-----5-5---5---5----5-5---5---5----------------|
G|----3-3-3-3---3------3-3---3-----3-3---3---3----3-3---3---3----------------|
C|---------------------------------------------------------------------------|
 PM   . . . .   .      . .   .     . .   .   .    . .   .   .

 Guitar I

d|--15------11------13------18\16------16\15------11------11/13--------------|
A|------13------13------13---------13---------13------13---------------------|
F|---------------------------------------------------------------------------|
C|---------------------------------------------------------------------------|
G|---------------------------------------------------------------------------|
C|---------------------------------------------------------------------------|

 Guitar II

d|---------------------------------------------------------------------------|
A|---------------------------------------------------------------------------|
F|---------------------------------------------------------------------------|
C|----5-5-5---5-5-5------5-5---5---5----5-5---5----5-5-5---5-5-5-------------|
G|----3-3-3---3-3-3------3-3---3---3----3-3---3----3-3-3---3-3-3-------------|
C|---------------------------------------------------------------------------|
 PM   . . .   . . .      . .   .   .    . .   .    . . .   . . .


 Guitar I

d|--15------11------13------18\16------16\15------11------11/13--------------|
A|------13------13------13---------13---------13------13---------------------|
F|---------------------------------------------------------------------------|
C|---------------------------------------------------------------------------|
G|---------------------------------------------------------------------------|
C|---------------------------------------------------------------------------|

 Guitar II

d|---------------------------------------------------------------------------|
A|---------------------------------------------------------------------------|
F|---------------------------------------------------------------------------|
C|---------------------------------------------------------------------------|
G|----6-6-6-6---6------6-6---6-----6-6---6---6----6-6---6---6----------------|
C|----6-6-6-6---6------6-6---6-----6-6---6---6----6-6---6---6----------------|
 PM   . . . .   .      . .   .     . .   .   .    . .   .   .

 Guitar I

d|--15------11------13------18\16------16\15------11------11/13--------------|
A|------13------13------13---------13---------13------13---------------------|
F|---------------------------------------------------------------------------|
C|---------------------------------------------------------------------------|
G|---------------------------------------------------------------------------|
C|---------------------------------------------------------------------------|

 Guitar II

d|---------------------------------------------------------------------------|
A|---------------------------------------------------------------------------|
F|---------------------------------------------------------------------------|
C|---------------------------------------------------------------------------|
G|----6-6-6---6-6-6------6-6---6---6----6-6---6----6-6-6---6-6-6-------------|
C|----6-6-6---6-6-6------6-6---6---6----6-6---6----6-6-6---6-6-6-------------|
 PM   . . .   . . .      . .   .   .    . .   .    . . .   . . .


If any of this is incorrect feel free to say although I'm pretty damn sure
that this is all right.


| /  slide up
| \  slide down
| h  hammer-on
| p  pull-off
| ~  vibrato
| +  harmonic
| x  Mute note
===============================================================================
Tap to rate this tab
 
# A B C D E F G H I J K L M N O P Q R S T U V W X Y Z