Song name
# A B C D E F G H I J K L M N O P Q R S T U V W X Y Z

Three 6 Mafia - Gettin Fucked Up tab

Song: Gettin' Fucked Up
Artist: Three 6 Mafia
Album: Jackass 2 Soundtrack
.= palm mute
I love this song and there were no tabs so I decided to figure it out.

E--------------|
B-------5------|
G----5--5----3-|
D--7-7------3--|
A-5--------1---|
E--------------|

E------------------------|
B------------------------|
G------------------------|
D-7-7-7-7--7--3-3-3-3--3-|
A-5-5-5-5--5--1-1-1-1--1-|
E------------------------|
  . . .       . . .

E-8b10---|
B--------|
G--------|
D--------|
A--------|
E--------|

E---------------------------------|
B---------------------------------|
G---------------------------------|
D-7-7-7-7-7-7-7-7-3-3-3-3-3-3-3-3-|
A-5-5-5-5-5-5-5-5-1-1-1-1-1-1-1-1-|
E---------------------------------|
  . .   . .   .   . .   . .   .

E---------------------------------|
B---------------------------------|
G---------------------------------|
D---------------------------------|
A-5-5-5-5-5-5-5-5-1-1-1-1-1-1-1-1-|
E---------------------------------|
  . .   . .   .   . .   . .   .

-----------------------------------|
B----------------------------------|
G----------------------------------|
D-7-7-7-7-7-7-7-7-3-3-3-3-3-3-3-3--|
A-5-5-5-5-5-5-5-5-1-1-1-1-1-1-1-1--|
E----------------------------------|
  . .   . .   .   . .   . .   .


That's pretty much it. You just have to figure out the song order. Have fun.
Tap to rate this tab
# A B C D E F G H I J K L M N O P Q R S T U V W X Y Z