Song name
# A B C D E F G H I J K L M N O P Q R S T U V W X Y Z

Three Days Grace - Hate Everything About You tab

-------------------------------------------------------------------------------
			    I Hate Everything About You - Three Days Grace
-------------------------------------------------------------------------------
Tabbed by:Glenn Thames
Email:glenn.thames@yahoo.com

Tuning:Drop D = D A D G B E
  Beginning and Verses
e|---------------------------------------------------------------------------|
B|---------------------------------------------------------------------------|
G|------4---6-------------4---6--------------4---6-------------4----6--------|
D|---------------------------------------------------------------------------|
A|---------------------------------------------------------------------------|
D|--4-------------0---4--------------0---4-------------0---4-----------------|

e|---------------------------------------------------------------------------|
B|---------------------------------------------------------------------------|
G|-----------4---6------------4---6--------------4----6-------------4----6---|
D|---------------------------------------------------------------------------|
A|---------------------------------------------------------------------------|
D|---4---0------------4---0--------------4---0--------------4---0------------|
   Pre-Chorus W/Tremolo Effect
e|---------------------------------------------------------------------------|
B|---------------------------------------------------------------------------|
G|---------------------------------------------------------------------------|
D|---2------0----------------------------------------------------------------|
A|---2------0----------------------------------------------------------------|
D|---2------0----------------------------------------------------------------|
   Chorus
e|---------------------------------------------------------------------------|
B|---------------------------------------------------------------------------|
G|---------------------------------------------------------------------------|
D|---4-4----0-0----7-7-7----2-2-2----4-4-----0-0----2-2-2-----7---6----------|
A|---4-4----0-0----7-7-7----2-2-2----4-4-----0-0----2-2-2-----7---6----------|
D|---4-4----0-0----7-7-7----2-2-2----4-4-----0-0----2-2-2-----7---6----------|
   Channel
e|---------------------------------------------------------------------------|
B|---------------------------------------------------------------------------|
G|---------------------------------------------------------------------------|
D|---6--7--9---6--7--9--6--7--9--6--7p6--------------------------------------|
A|-----------------------------------------7---------------------------------|
D|---------------------------------------------------------------------------|



| /  slide up
| \  slide down
| h  hammer-on
| p  pull-off
| ~  vibrato
| +  harmonic
| x  Mute note
===============================================================================
Tap to rate this tab
 
# A B C D E F G H I J K L M N O P Q R S T U V W X Y Z