Song name
# A B C D E F G H I J K L M N O P Q R S T U V W X Y Z

Three Days Grace - Never Too Late Acoustic tab

Help us improve GuitareTab! Take a short survey!
Hey,
This is my 3rd Tab.
I really put nice stuff into it. please comment, rate, whatever.

This is how i play my version of never too late
i hope it is useful to someone.

enjoy...

Artist: Three Days Grace
Album: One-x
Song: Never too Late ( Acoustic )


(Intro And Verse) 
             
           (x3)                        (x1)                           
E|--------------------------------|-------------------|
B|--------------------------------|-------------------|
G|--------------------------------|-------------------|
D|-------10-----------10--8--7--0-|-------10-----10---|
A|----8------8-----0--------------|----7------7--10---|
D|-8------------0-----------------|-7------------10---|

(Chorus Acoustic)
E----------------------------------------------------------|
B----------------------------------------------------------|
G--2--3~--0--5~--2--3~--0--5~--2--3~--0--5~--3--2~--0--5~--|
D--0--3~--2--5~--0--3~--2--5~--0--3~--2--5~--3--0~--2--5~--|
A--0--1~--0--3~--0--1~--0--3~--0--1~--0--3~--1--0~--0--3~--|
D--0-------------0-------------0----------------0----------|

(Verse)
                    (x3)                 (x1)
E|--------------------------------|-------------------|
B|--------------------------------|-------------------|
G|--------------------------------|-------------------|
D|-------10-----------10--8--7--0-|-------10-----10---|
A|----8------8-----0--------------|----7------7--10---|
D|-8------------0-----------------|-7------------10---|


Chorus (Acoustic) x1
E|-----------------------------------------------------------------|
B|----------------------10's------------------------------10's-----|
G|-----------------------------------------------------------------|
D|-0----88888----7----1010101010----0----88888----7----1010101010--|
A|-0----88888----7----1010101010----0----88888----7----1010101010--|
D|-0----88888----7----1010101010----0----88888----7----1010101010--|

E|------------------------------------------------------------|
B|-----------------------10's---------------------------------|
G|------------------------------------------------------------|
D|-0----88888----7----1010101010----8888---0----77777----10~--|
A|-0----88888----7----1010101010----8888---0----77777----10~--|
D|-0----88888----7----1010101010----8888---0----77777----10~--|


Bridge (x3)                                          (x1)
E|---------------------------------------------|--------------------|
B|---------------------------------------------|--------------------|
G|---------------------------------------------|--------------------|
D|-8-8-8-8--8-8-8-8--8-8--3-3-3--10-10-10-10---|-8888888--7777--10--|
A|-8-8-8-8--8-8-8-8--8-8--3-3-3--10-10-10-10---|-8888888--7777--10--|
D|-8-8-8-8--8-8-8-8--8-8--3-3-3--10-10-10-10---|-8888888--7777--10--|

ALTERNATE BRIGDE:
----------------
                 (x3)                            (x1)
E|----------------------------------------|------------------|
B|----------------------------------------|------------------|
G|-------------------------------5-5-5----|-3-3-3--0--5~-----|
D|-8-8-8-8--8-8-8-8--8-8--3-3-3--5-5-5----|-3-3-3--2--5~-----|
A|-8-8-8-8--8-8-8-8--8-8--3-3-3--3-3-3----|-1-1-1--0--3~-----|
D|-8-8-8-8--8-8-8-8--8-8--3-3-3-----------|------------------|




E|------------------|                E----------------------|
B|------------------|                B----------------------|
G|------------------| (x3)Then, >>>  G----------------------|
D|-------10-----12--|                D---12~~~--<12>--------|
A|----8-------------|                A---10~~~--<12>--------|
D|-8---------0------|                D---10~~~--<12>--------|

Chorus (Acoustic) x1
E|-----------------------------------------------------------------|
B|----------------------10's------------------------------10's-----|
G|-----------------------------------------------------------------|
D|-0----88888----7----1010101010----0----88888----7----1010101010--|
A|-0----88888----7----1010101010----0----88888----7----1010101010--|
D|-0----88888----7----1010101010----0----88888----7----1010101010--|

E|------------------------------------------------------------|
B|-----------------------10's---------------------------------|
G|------------------------------------------------------------|
D|-0----88888----7----1010101010----8888---0----77777----10~--|
A|-0----88888----7----1010101010----8888---0----77777----10~--|
D|-0----88888----7----1010101010----8888---0----77777----10~--|

(Outro)
            (x3)                       (x1)
E|--------------------------------|-----------------------|
B|--------------------------------|-----------------------|
G|--------------------------------|-----------------------|
D|-------10-----------10--8--7--0-|-------10-----10-<10>--|
A|----8------8-----0--------------|----7------7--10-<10>--|
D|-8------------0-----------------|-7------------10-<10>--|

======================================================

Tablature Legend
----------------
 h   - hammer-on
 p   - pull-off
 b   - bend
 pb  - pre-bend
 r   - bend release (if no number after the r, then release immediately)
 /\  - slide into or out of (from/to "nowhere")
 s   - legato slide
 S   - shift slide
 - natural harmonic
[n]  - artificial harmonic
n(n) - tapped harmonic
 ~   - vibrato
 tr  - trill
 T   - tap
 TP  - trem. picking
 PM  - palm muting
\n/  - tremolo bar dip; n = amount to dip
 \n  - tremolo bar down
 n/  - tremolo bar up
/n\  - tremolo bar inverted dip
 =   - hold bend; also acts as connecting device for hammers/pulls
 <> - volume swell (louder/softer)
 x   - on rhythm slash represents muted slash
 o   - on rhythm slash represents single note slash
Related for Never Too Late Acoustic tab