Song name
# A B C D E F G H I J K L M N O P Q R S T U V W X Y Z

Three Days Grace - Eddie tab

 This is a song by a band who is now known as three days grace, it was released when 
name was groundswell

This is also my first tab so don't be too hard on me when you're correcting it, i 
find a tab for this song anywhere on the net so i decided to make one

E------------------------------------------------------------------ gtr 1--|
B--------5---------------------5----------5--------------------------------| intro
G--------------------------------------------------------------------------|
D----2-----2-------------2---------2----------2----------------------------|
A--0----------0-----------------------------------0------------------------|
D----------------0---3-----------------------------------------------------|
 repeat however many times...

gtr 2

E---------------------------------------------|intro solo thing
G---------------------------------------------|
D---\7---7h10--12---10---9---7----------------|
A---------------------------------------------|
D---------------------------------------------|

E------------------------------------------|
B------------------------------------------|
G------------------------------------------|
D----15---14----12---17---15---14--14------|
A------------------------------------------|
D------------------------------------------|

verse:

E--0--0--0--------------------------------------| This Plays with the intro for the
B--1--1--1--------------------------------------| Verse
G--0--0--0--------------------------------------|
D--2--2--2--------------------------------------|
A--3--3--3--------------------------------------|
D--x--x--x--------------------------------------|

Chorus:
E--------------------------------------------|
B--------------------------------------------|
G--------------------------------------------|
D--5--x-x--5--3--0---------------------------|
A--5--x-x--5--3--0---------------------------| repeat however many times
D--5--x-x--5--3--0---------------------------|

Solo

E--------------------------------------16------------------------------------|
B----16h17---16h17---16h17----15h17-------16h18---b15----10--(half)b-15--10--|
G----------------------------------------------------------------------------|
D----------------------------------------------------------------------------|
A----------------------------------------------------------------------------|
D----------------------------------------------------------------------------|
....well at least thats part of the solo, better than nothin, i think

If you have any corrections or comments email me at tj-lowry@hotmail.com
Tap to rate this tab
 
# A B C D E F G H I J K L M N O P Q R S T U V W X Y Z