Guitaretab - guitar tabs
Song name
# A B C D E F G H I J K L M N O P Q R S T U V W X Y Z

Three Days Grace - Overrated tab

intro:   
D|--------------------------------|
A|--------------------------------|
F|--------------------------------|(x4)
C|--------------------------------|
G|--------8-7-0-10-8-7------------|
C|0-8-7-0-------------7-10-8-7-8--|
               


verse:
|---------------------------------------------|
|---------------------------------------------|
|-------2---2---------------------------------|(x6)
|0------0---0----------5------5---3-----------|
|0----------3----------7------7---5-------0-3-|
|0---------------------5------5---3-----3-----|
                     


chorus:
|---------------------------------------------------|
|---------------------------------------------------|
|---------------------------------------------------|(x2)
|0------0-----10-----10----5------5-----3-----------|
|0------0-----10-----10----5------5-----3--------0-3|
|0------0-----10-----10----5------5-----3------3----|
                         



before verse 2:
|-----------------0-1-0-1-0-1-0-1-0-1-0-1-0-1-0-1|
|------------------------------------------------|
|------------------------------------------------|
|0-----------------------------------------------|
|0-----------------------------------------------|
|0-----------------------------------------------|

verse:
|---------------------------------------------|
|---------------------------------------------|
|-------2---2---------------------------------|(x4)
|0------0---0----------5------5---3-----------|
|0----------3----------7------7---5-------0-3-|
|0---------------------5------5---3-----3-----|
[ Tab from: http://www.guitaretab.com/t/three-days-grace/130031.html ]
chorus:
|---------------------------------------------------|
|---------------------------------------------------|
|---------------------------------------------------|(x4)
|0------0-----10-----10----5------5-----3-----------|
|0------0-----10-----10----5------5-----3--------0-3|
|0------0-----10-----10----5------5-----3------3----|
                         

bridge:
|-------------------------------------------------------------------|
|-------------------------------------------------------------------|
|-------------------------------------------------------------------|
|0~~~~--------------------------------------------------------10--8-|
|0~~~~----------8-7-0-10 8-7------------------8-7-0-10 8-7----10--8-|
|0~~~~----0-8-7-0------------7-10-8-7-8-0-8-7-0---------------10--8-|

intro:   
D|------------------------------------|
A|------------------------------------|
F|------------------------------------|(x4)
C|------------------------------------|
G|---------8-7-0-10-8-7---------------|
C|0-8-7-0---------------7-10-8-7-8----|

chorus:
|---------------------------------------------------|
|---------------------------------------------------|
|---------------------------------------------------|(x4)
|0------0-----10-----10----5------5-----3-----------|
|0------0-----10-----10----5------5-----3--------0-3|
|0------0-----10-----10----5------5-----3------3----|


   
                                 |----------|
                                 |----------|
                                 |----------|
                                 |0---------|
                                 |0---------|
                                 |0---------|
Once again Iím about 90% sure of this one.

Email: beasto91@yahoo.com any problems heres your solution
Related for Overrated tab