Song name
# A B C D E F G H I J K L M N O P Q R S T U V W X Y Z

Three Days Grace - Scared tab

SCARED BY THREE DAYS GRACE
<--------------------------------------->
<--------------------------------------->
<--------------------------------------->
Tabbed by: 18zzz18
PM Me Corrections

Well the only good tabs i saw for this was on Guitar Pro which i dont have cause i dont
pay for it (:  so this tab is for everyone like me.

My first tab so go easy ;)

I'm pretty sure this is 99.9% correct.
Maybe better. (:

UPDATE::: I fixed the intro and everything thats the same as the intro.  I put it down 
 Instead of eights i put sixes... whoops... hehe.

Tuning:  Drop D  (D,A,D,G,B,E)

Intro:

e|---------------------------------------------------------------------------|
B|-8-8-8-8-8-8-7-8-8-8-8-8-8/10\8--------------------------------------------|
G|-x-x-x-x-x-x-x-x-x-x-x-x-x-x-x-------------------------------X3------------|
D|-8-8-8-8-8-8-7-8-8-8-8-8-8/10\8--------------------------------------------|
A|---------------------------------------------------------------------------|
E|---------------------------------------------------------------------------|

On the second time of that Guitar 2 comes in with
e|---------------------------------------------------------------------------|
B|---------------------------------------------------------------------------|
G|---------------------------------------------------------------------------|
D|-5-5-5-5-5-5-0-5-5-5-5-5-5-0-----------------------------------------------|
A|-5-5-5-5-5-5-0-5-5-5-5-5-5-0---------------------------x2------------------|
E|-5-5-5-5-5-5-0-5-5-5-5-5-5-0-----------------------------------------------|

Verse same as intro but quiet and no guitar 2.
Then play this
  "So real these voices in my head...."
e|---------------------------------------------------------------------------|
B|---------------------------------------------------------------------------|
G|---------------------------------------------------------------------------|
D|-1-1-1-1-8-8-8-8--5-5-5-5-5-5-0-5-5-5-5-5-5-0------------------------------|
A|-1-1-1-1-8-8-8-8--5-5-5-5-5-5-0-5-5-5-5-5-5-0------------------------------|
E|-1-1-1-1-8-8-8-8--5-5-5-5-5-5-0-5-5-5-5-5-5-0------------------------------|

Guitar 2:
don't play till after the 1s and the 8s
e|---------------------------------------------------------------------------|
B|-8-8-8-8-8-8-7-8-8-8-8-8-8/10\8--------------------------------------------|
G|-x-x-x-x-x-x-x-x-x-x-x-x-x-x-x---------------------------------------------|
D|-8-8-8-8-8-8-7-8-8-8-8-8-8/10\8--------------------------------------------|
A|---------------------------------------------------------------------------|
E|---------------------------------------------------------------------------|


 "When it comes back you wont be..."
e|---------------------------------------------------------------------------|
B|---------------------------------------------------------------------------|
G|---------------------------------------------------------------------------|
D|-1-1-1-1-8-8-8-8-----------------------------------------------------------|
A|-1-1-1-1-8-8-8-8-----------------------------------------------------------|
E|-1-1-1-1-8-8-8-8-----------------------------------------------------------|

e|---------------------------------------------------------------------------|
B|---------------------------------------------------------------------------|
G|---------------5-5-5-------------------------------------------------------|
D|-5-5-0-0-1-1-1-3-3-3-3-----------------------------------------------------|
A|-5-5-0-0-1-1-1-3-3-3-3-------------x4--------------------------------------|
E|-5-5-0-0-1-1-1-------3-----------------------------------------------------|
 (On the fourth time dont play the last four power chords)

Play Intro again
Play verse again
Play chorus again
Intro
Then
e|---------------------------------------------------------------------------|
B|---------------------------------------------------------------------------|
G|---------------------------------------------------------------------------|
D|---------------------------------------------------------------------------|
A|-1-1-1-1-8-8-8-8-----------------------------------------------------------|
E|-1-1-1-1-8-8-8-8-----------------------------------------------------------|


Bridge:
"It's all because of you..."
e|---------------------------------------------------------------------------|
B|--8-8-8-8-8-8-/8-8-8-8-8-8-/8-8-8-8-8-8-8-/8-8-8-8-8-8-/8-8-8-8-8-8--------|
G|---------------------------------------------------------------------------|
D|---------------------------------------------------------------------------|
A|---------------------------------------------------------------------------|
E|---------------------------------------------------------------------------|
and so on...

  Then
  "I wish you never told me, i wish i never knew!"
e|---------------------------------------------------------------------------|
B|---------------------------------------------------------------------------|
G|---------------------------------------------------------------------------|
D|-------------------------1-1-1---------------------------------------------|
A|-------------------1-1-1-1-1-1---------------------------------------------|
E|-1-1-1-1-1-1-1-1-1-1-1-1-1-1-1---------------------------------------------|
Gradually get louder.

Chorus again
Then intro

| /  slide up
| \  slide down
| h  hammer-on
| p  pull-off
| ~  vibrato
| +  harmonic
| x  Mute note
===============================================================================
Tap to rate this tab
 
# A B C D E F G H I J K L M N O P Q R S T U V W X Y Z