Song name
# A B C D E F G H I J K L M N O P Q R S T U V W X Y Z

Three Days Grace - Wicked Game tab

Highlighted       Show chord diagrams
Adam Gontier, lead singer of Three Days Grace, performed this live at his concert in 
BC, and I LOVED IT!

Standard tuning on the acoustic.

Three Days Grace/Adam Gontier - Wicked Game (originally by Chris Isaak)


Intro: Play this twice.

   Bm    A       E
e|--------------------------------------|
B|-----3------2--------------------(3)--|
G|-----4------2------1------1---2---4---|
D|---4------2-------(2)-------2---2---2-|
A|-2------0--------2------2-------------|
E|---------------0------0---------------|

Verse 1: Intro played throughout the song with the odd strum here and there.

Bm                          A                      E
World was on fire and no one would save me but you.
Bm                           A                  E
Strange what desire will make foolish people do.
Bm                             A                  E
I'd never dreamed that I'd meet somebody like you.
Bm                                 A                  E
And I'd never dreamed that I'd lose somebody like you.

Chrous:

Bm   A                        E
No, I don't want to fall in love.
Bm   A                        E
No, I don't want to fall in love... With you.

Little solo after the "with you.":

e|---2-------2--------------------------0---0-------0-----0-|
B|-----3----------3------2h3--3p2-------0---0-------0-----0-|
G|(4)----4-4------4------2----2---------1---1-------1-1---1-|
D|-4-----4-4---4-------2-2----2---------2-2---2-----2---2---|
A|-------------------0------------0---2-----------2---------|
E|----------------------------------0-----------0-----------|

Verse 2:

Bm              A           E
What a wicked thing to play, to make me feel this way.
Bm              A         E
What a wicked thing to do, to make me dream of you.
Bm              A          E
What a wicked thing to say, you never felt this way.
Bm              A         E
What a wicked thing to do, to make me dream of you.

Chrous:

Bm   A                        E
No, I don't want to fall in love.
Bm   A                        E
No, I don't want to fall in love.
Bm   A                        E
No, I don't want to fall in love.
Bm   A                        E
No, I don't want to fall in love... With you.

Little solo after the "with you.":

e|---2-------2--------------------------0---0-------0-----0-|
B|-----3----------3------2h3--3p2-------0---0-------0-----0-|
G|(4)----4-4------4------2----2---------1---1-------1-1---1-|
D|-4-----4-4---4-------2-2----2---------2-2---2-----2---2---|
A|-------------------0------------0---2-----------2---------|
E|----------------------------------0-----------0-----------|

Verse 3:

Bm                A                        E
World was on fire no one would save me but you.
Bm                            A                 E
Strange what desire will make foolish people do.

Chrous:

Bm   A                        E
No, I don't want to fall in love.
Bm   A                        E
No, I don't want to fall in love.
Bm   A                        E
No, I don't want to fall in love.
Bm   A                        E
No, I don't want to fall in love... With you.

(Finish with Bm)
Tap to rate this tab
# A B C D E F G H I J K L M N O P Q R S T U V W X Y Z