Song name
# A B C D E F G H I J K L M N O P Q R S T U V W X Y Z

Three Days Grace - One Last Breath tab

i learned this song a while back and im pretty sure its 99.9% correct...this is my first 
so i hope ya like it!!

			     one last breath - three days grace
-------------------------------------------------------------------------------
Tabbed by: cody couch
Email: codyjcouch@yahoo.com

Tuning: standard

e|--2--5-0h2----------------------------------------3-2---2--3-2--0h2p0------|
B|----------3---2-3-5--5p3p2h3------3-2h3--------3----------------------3----|
G|-----------2----------------2--4-------4-----0--0----------------------2---|
D|--0-0-0---------------------------------4---0-0---------0-0-0--------------|
A|-------------0-------0---------2-2-2---------------------------------------|
E|-------------------------------------------3-------------------------------|

e|----------------------2--------3-------------------------------------------|
B|-----2--2h3p2--------2-2------3-3------------------------------------------|
G|----2----------0----4---4----0---0-----------------------------------------|
D|---2----------4----4-----4--0-----0------*repeat*--------------------------|
A|--0---------------2--------------------------------------------------------|
E|---------------------------3-----------------------------------------------|
Tap to rate this tab
# A B C D E F G H I J K L M N O P Q R S T U V W X Y Z