Song name
# A B C D E F G H I J K L M N O P Q R S T U V W X Y Z

Three Days Grace - Break tab

Three Days Grace
Break
Tabbed by U B the band
Tuning D A D G B e

Legend
v-vibrato     /-slide up     x-muted strum     h-hammer on     b-bend

Intro: Guitar 1 (Distorted) BARRY
e|--------------------------------------------------------------------|
B|--15v---------------------------------------------------------------|
G|--------------------------------------------------------------------|
D|--------------------------------------------------------------------|
A|--------------------------------------------------------------------|
D|--------------------------------------------------------------------|

Intro: Guitar 2 (Distorted) ADAM
e|--------------------------------------------------------------------|
B|--------------------------------------------------------------------|
G|--------------------------------------------------------------------|
D|--0---0----0---5--/6---5---3-----10---10---x-x---10---x-x---7-------|
A|--0---0----0---5--/6---5---3-----10---10---x-x---10---x-x---7-------|
D|--0---0----0---5--/6---5---3-----10---10---x-x---10---x-x---7-------|

Intro: Guitar 1 (Distorted)
e|--------------------------------------------------------------------|
B|--------------------------------------------------------------------|
G|--10-------9---------------------10-------9-------------------------|
D|------------------10---7-------------------------10----7------------|
A|--------------------------------------------------------------------|
D|--------------------------------------------------------------------|
                                                                      |
Intro: Guitar 2 (Distorted)                                           |
e|--------------------------------------------------------------------|
B|--------------------------------------------------------------------|
G|--------------------------------------------------------------------|
D|--0---0----0---5--/6---5---3-----10---10---x-x---10----7----12------|
A|--0---0----0---5--/6---5---3-----10---10---x-x---10----7----12------|
D|--0---0----0---5--/6---5---3-----10---10---x-x---10----7----12------|

Verse 1: Guitars 1 & 2 (Distorted)
e|--------------------------------------------------------------------|
B|--------------------------------------------------------------------|
G|--------------------------------------------------------------------|
D|--------------------------------------------------8--7--5--3--5--7--|
A|--------------------------------------------------8--7--5--3--5--7--|
D|--------------------------------------------------8--7--5--3--5--7--|

Verse 1: Guitars 1 & 2 (Distorted)
e|--------------------------------------------------------------------|
B|--------------------------------------------------------------------|
G|--------------------------------------------------------------------|
D|--------------------------------------------------8--7--5--3--5--7--|
A|--------------------------------------------------8--7--5--3--5--7--|
D|--------------------------------------------------8--7--5--3--5--7--|

Pre-Chorus: Guitars 1 & 2 (Distorted)
e|--------------------------------------------------------------------|
B|--------------------------------------------------------------------|
G|--7--------------------------------7--------------------------------|
D|--8--------------------------------5--------------------------------|
A|--8--------------------------------5--------------------------------|
D|--8--------------------------------5--------------------------------|

Chorus: Guitar 2 (Distorted)
e|--------------------------------------------------------------------|
B|--------------------------------------------------------------------|
G|--------------------------------------------------------------------|
D|--0---0----0---5--/6---5---3-----10---10---x-x---10---x-x---7-------|
A|--0---0----0---5--/6---5---3-----10---10---x-x---10---x-x---7-------|
D|--0---0----0---5--/6---5---3-----10---10---x-x---10---x-x---7-------|

Chorus: Guitar 2 (Distorted)
e|--------------------------------------------------------------------|
B|--------------------------------------------------------------------|
G|--------------------------------------------------------------------|
D|--0---0----0---5--/6---5---3-----10---10---x-x---10----7----12------|
A|--0---0----0---5--/6---5---3-----10---10---x-x---10----7----12------|
D|--0---0----0---5--/6---5---3-----10---10---x-x---10----7----12------|

Chorus: Guitar 2 (Distorted)
e|--------------------------------------------------------------------|
B|--------------------------------------------------------------------|
G|--------------------------------------------------------------------|
D|--0---0----0---5---5-------------10---10---x-x---10---x-x---7-------|
A|--0---0----0---5---7-------------10---10---x-x---10---x-x---7-------|
D|--0---0----0---5-----------------10---10---x-x---10---x-x---7-------|

Chorus: Guitar 2 (Distorted)
e|--------------------------------------------------------------------|
B|--------------------------------------------------------------------|
G|--------------------------------------------------------------------|
D|--0---0----0---5--/6---5---3-----10---10---x-x---10----7----12------|
A|--0---0----0---5--/6---5---3-----10---10---x-x---10----7----12------|
D|--0---0----0---5--/6---5---3-----10---10---x-x---10----7----12------|

Post Chorus: Guitar 1 (Clean with reverb)
e|--------------------(0)-------------------------------(0)-----------|
B|---------------------5-----b6--------------------------5-----b6-----|
G|---------------------7---------------------------------7------------|
D|--------------------------------------------------------------------|
A|--------------------------------------------------------------------|
D|--------------------------------------------------------------------|

Post Chorus: Guitar 2 (Distorted)
e|--------------------------------------------------------------------|
B|--------------------------------------------------------------------|
G|--------------------------------------------------------------------|
D|--------------------------------------------------------------------|
A|--0--0--0--0--0--0------------------0--0--0--0--0--0----------------|
D|--0--0--0--0--0--0------------------0--0--0--0--0--0----------------|

Verse 2: Guitars 1 & 2 (Distorted)
e|--------------------------------------------------------------------|
B|--------------------------------------------------------------------|
G|--------------------------------------------------------------------|
D|--------------------------------------------------8--7--5--3--5--7--|
A|--------------------------------------------------8--7--5--3--5--7--|
D|--------------------------------------------------8--7--5--3--5--7--|

Verse 2: Guitars 1 & 2 (Distorted)
e|--------------------------------------------------------------------|
B|--------------------------------------------------------------------|
G|--------------------------------------------------------------------|
D|--------------------------------------------------8--7--5--3--5--7--|
A|--------------------------------------------------8--7--5--3--5--7--|
D|--------------------------------------------------8--7--5--3--5--7--|

Pre-Chorus: Guitars 1 & 2 (Distorted)
e|--------------------------------------------------------------------|
B|--------------------------------------------------------------------|
G|--7--------------------------------7--------------------------------|
D|--8--------------------------------5--------------------------------|
A|--8--------------------------------5--------------------------------|
D|--8--------------------------------5--------------------------------|

Chorus: Guitar 2 (Distorted)
e|--------------------------------------------------------------------|
B|--------------------------------------------------------------------|
G|--------------------------------------------------------------------|
D|--0---0----0---5--/6---5---3-----10---10---x-x---10---x-x---7-------|
A|--0---0----0---5--/6---5---3-----10---10---x-x---10---x-x---7-------|
D|--0---0----0---5--/6---5---3-----10---10---x-x---10---x-x---7-------|

Chorus: Guitar 2 (Distorted)
e|--------------------------------------------------------------------|
B|--------------------------------------------------------------------|
G|--------------------------------------------------------------------|
D|--0---0----0---5--/6---5---3-----10---10---x-x---10----7----12------|
A|--0---0----0---5--/6---5---3-----10---10---x-x---10----7----12------|
D|--0---0----0---5--/6---5---3-----10---10---x-x---10----7----12------|

Chorus: Guitar 2 (Distorted)
e|--------------------------------------------------------------------|
B|--------------------------------------------------------------------|
G|--------------------------------------------------------------------|
D|--0---0----0---5---5-------------10---10---x-x---10---x-x---7-------|
A|--0---0----0---5---7-------------10---10---x-x---10---x-x---7-------|
D|--0---0----0---5-----------------10---10---x-x---10---x-x---7-------|

Chorus: Guitar 2 (Distorted)
e|--------------------------------------------------------------------|
B|--------------------------------------------------------------------|
G|--------------------------------------------------------------------|
D|--0---0----0---5--/6---5---3-----10---10---x-x---10----7----12------|
A|--0---0----0---5--/6---5---3-----10---10---x-x---10----7----12------|
D|--0---0----0---5--/6---5---3-----10---10---x-x---10----7----12------|

Bridge: Guitar 1 (Distorted)
e|--------------------------------------------------------------------|
B|--------------------------------------------------------------------|
G|--9-----------------------------------------------------------------|
D|--------------------------------------------------------------------|
A|--------------------------------------------------------------------|
D|--------------------------------------------------------------------|
                                                                      |
Bridge: Guitar 2 (Distorted)                                          |
e|--------------------------------------------------------------------|
B|--------------------------------------------------------------------|
G|--------------------------------------------------------------------|
D|--0-----------------------------------------------8--7--5--3--5--7--|
A|--0-----------------------------------------------8--7--5--3--5--7--|
D|--0-----------------------------------------------8--7--5--3--5--7--|

Bridge: Guitar 1 (Distorted)
e|------------15h17h18-17-15-17v-----15-17/18-17-15-17v--15-----------|
B|--15---15v-----------------------15------------------------18-17-18-|
G|-------------------------------14-----------------------------------|
D|--------------------------------------------------------------------|
A|--------------------------------------------------------------------|
D|--------------------------------------------------------------------|

Bridge: Guitar 1 (Distorted)
e|--------------15h17h18-17-15-17v-----15-17/18-17-15-17-15----15-----|
B|--17b----15v-----------------------15---------------------18----18--|
G|---------------------------------14---------------------------------|
D|--------------------------------------------------------------------|
A|--------------------------------------------------------------------|
D|--------------------------------------------------------------------|

Bridge: Guitar 1 (Distorted)
e|--------------------------------------------------------------------|
B|--17-18-----------------------------------------13------13--15------|
G|------------15--14--12------12--14--15--14--15------15--------------|
D|------------------------15------------------------------------------|
A|--------------------------------------------------------------------|
D|--------------------------------------------------------------------|

Chorus: Guitar 2 (Distorted)
e|--------------------------------------------------------------------|
B|--------------------------------------------------------------------|
G|--------------------------------------------------------------------|
D|--0---0----0---5--/6---5---3-----10---10---x-x---10---x-x---7-------|
A|--0---0----0---5--/6---5---3-----10---10---x-x---10---x-x---7-------|
D|--0---0----0---5--/6---5---3-----10---10---x-x---10---x-x---7-------|

Chorus: Guitar 2 (Distorted)
e|--------------------------------------------------------------------|
B|--------------------------------------------------------------------|
G|--------------------------------------------------------------------|
D|--0---0----0---5--/6---5---3-----10---10---x-x---10----7----12------|
A|--0---0----0---5--/6---5---3-----10---10---x-x---10----7----12------|
D|--0---0----0---5--/6---5---3-----10---10---x-x---10----7----12------|

Chorus: Guitar 2 (Distorted)
e|--------------------------------------------------------------------|
B|--------------------------------------------------------------------|
G|--------------------------------------------------------------------|
D|--0---0----0---5-xx5-------------10---10---x-x---10---x-x---7-------|
A|--0---0----0---5-xx7-------------10---10---x-x---10---x-x---7-------|
D|--0---0----0---5-xx--------------10---10---x-x---10---x-x---7-------|

Chorus: Guitar 2 (Distorted)
e|--------------------------------------------------------------------|
B|--------------------------------------------------------------------|
G|--------------------------------------------------------------------|
D|--0---0----0---5--/6---5---3-----10---10---x-x---10----7----12------|
A|--0---0----0---5--/6---5---3-----10---10---x-x---10----7----12------|
D|--0---0----0---5--/6---5---3-----10---10---x-x---10----7----12------|

Chorus: Guitar 1 (Distorted)
e|--15h17h18-17-15-17-------------------------------------------------|
B|---------------------------------17-------18------------------------|
G|---------------------------------------------------17-------14------|
D|--------------------------------------------------------------------|
A|--------------------------------------------------------------------|
D|--------------------------------------------------------------------|
                                                                      |
Chorus: Guitar 2 (Distorted)                                          |
e|--------------------------------------------------------------------|
B|--------------------------------------------------------------------|
G|--------------------------------------------------------------------|
D|--0---0----0---5--/6---5---3-----10---10---x-x---10---x-x---7-------|
A|--0---0----0---5--/6---5---3-----10---10---x-x---10---x-x---7-------|
D|--0---0----0---5--/6---5---3-----10---10---x-x---10---x-x---7-------|

Chorus: Guitar 1 (Distorted)
e|--15h17h18-17-15-17--------------------------------15---------------|
B|---------------------------------17-------18----------------18------|
G|--------------------------------------------------------------------|
D|--------------------------------------------------------------------|
A|--------------------------------------------------------------------|
D|--------------------------------------------------------------------|
                                                                      |
Chorus: Guitar 2 (Distorted)                                          |
e|--------------------------------------------------------------------|
B|--------------------------------------------------------------------|
G|--------------------------------------------------------------------|
D|--0---0----0---5--/6---5---3-----10---10---x-x---10----7----12------|
A|--0---0----0---5--/6---5---3-----10---10---x-x---10----7----12------|
D|--0---0----0---5--/6---5---3-----10---10---x-x---10----7----12------|

Chorus: Guitar 1 (Distorted)
e|--15h17h18-17-15-17-------------------------------------------------|
B|---------------------------------17-------18------------------------|
G|---------------------------------------------------17-------14------|
D|--------------------------------------------------------------------|
A|--------------------------------------------------------------------|
D|--------------------------------------------------------------------|
                                                                      |
Chorus: Guitar 2 (Distorted)                                          |
e|--------------------------------------------------------------------|
B|--------------------------------------------------------------------|
G|--------------------------------------------------------------------|
D|--0---0----0---5-xx5-------------10---10---x-x---10---x-x---7-------|
A|--0---0----0---5-xx7-------------10---10---x-x---10---x-x---7-------|
D|--0---0----0---5-xx--------------10---10---x-x---10---x-x---7-------|

Chorus: Guitar 1 (Distorted)
e|--15h17h18-17-15-17--------------------------------15---------------|
B|---------------------------------17-------18----------------18------|
G|--------------------------------------------------------------------|
D|--------------------------------------------------------------------|
A|--------------------------------------------------------------------|
D|--------------------------------------------------------------------|
                                                                      |
Chorus: Guitar 2 (Distorted)                                          |
e|--------------------------------------------------------------------|
B|--------------------------------------------------------------------|
G|--------------------------------------------------------------------|
D|--0---0----0---5--/6---5---3-----10---10---x-x---10----7----12------|
A|--0---0----0---5--/6---5---3-----10---10---x-x---10----7----12------|
D|--0---0----0---5--/6---5---3-----10---10---x-x---10----7----12------|

Outro: Guitar 1 (Distorted)
e|--------------------------------------------------------------------|
B|--17----------------------------------------------------------------|
G|--------------------------------------------------------------------|
D|--------------------------------------------------------------------|
A|--------------------------------------------------------------------|
D|--------------------------------------------------------------------|

Outro: Guitar 2 (Distorted)
e|--------------------------------------------------------------------|
B|--------------------------------------------------------------------|
G|--------------------------------------------------------------------|
D|--0-----------------------------------------------------------------|
A|--0-----------------------------------------------------------------|
D|--0-----------------------------------------------------------------|

Finished
Tap to rate this tab
 
# A B C D E F G H I J K L M N O P Q R S T U V W X Y Z