Song name
# A B C D E F G H I J K L M N O P Q R S T U V W X Y Z

Three Days Grace - World So Cold tab

Three Days Grace
World So Cold
Tabbed by U B the band
Tuning C G C F A D

Legend
b-bend           v-vibrato           pm-palm mute           /-slide up

Intro: Guitar 1 (Clean with Flange)
D|--------------------------------------------------------------------|
A|--------------------------------------------------------------------|
F|--------------2--------3---2-----------------2-----------5----------|
C|-----------------0--3---------------------------0--3--0-------------|
G|--------------------------------------------------------------------|
C|--3b-v----0----------------------3b-v----0--------------------------|

Intro: Guitar 1 (Clean with Flange)
D|--------------------------------------------------------------------|
A|--------------------------------------------------------------------|
F|--------------2--------3---2------------3------2--------------------|
C|-----------------0--3---------------------------------3-------------|
G|--------------------------------------------------------------------|
C|--3b-v----0----------------------1----------------------------------|

Intro: Guitars 1 & 2 (Distorted)
D|--------------------------------------------------------------------|
A|--------------------------------------------------------------------|
F|---------------------------------------------------------5-5-5/7----|
C|----------0---7--0--3--8-0-7-0-----------0---7--0--3--0--5-5-5/7----|
G|----------0---7--0--3--8-0-7-0-----------0---7--0--3--0--3-3-3/5----|
C|--3b-v----0---7--0--3--8-0-7-0---3b-v----0---7--0--3--0-------------|

Intro: Guitar 1 (Distorted)      Guitar 1
D|------------------------------|-------------------------------------|
A|------------------------------|-------------------------------------|
F|------------------------------|---------3------2--------------------|
C|----------0---7--0--3--8-0-7--|-----------------------3-------------|
G|----------0---7--0--3--8-0-7--|-------------------------------------|
C|--3b-v----0---7--0--3--8-0-7--|--1----------------------------------|
                                                                      |
Intro: Guitar 2 (Distorted)      Guitar 2                             |
D|------------------------------|-------------------------------------|
A|------------------------------|-------------------------------------|
F|------------------------------|-------------------------------------|
C|----------0---7--0--3--8-0-7--|--1----------------------------------|
G|----------0---7--0--3--8-0-7--|--1----------------------------------|
C|--3b-v----0---7--0--3--8-0-7--|--1----------------------------------|
                                   pm

Verse 1: Guitar 1 (Clean with Flange) PLAY VERSE 2 TIMES
D|--------------------------------------------------------------------|
A|--------------------------------------------------------------------|
F|--------------2--------3---2-----------------2-----------5----------|
C|-----------------0--3---------------------------0--3--0-------------|
G|--------------------------------------------------------------------|
C|--3b-v----0----------------------3b-v----0--------------------------|

Verse 1: Guitar 1
D|--------------------------------------------------------------------|
A|--------------------------------------------------------------------|
F|--------------2--------3---2------------3------2--------------------|
C|-----------------0--3---------------------------------3-------------|
G|--------------------------------------------------------------------|
C|--3b-v----0----------------------1----------------------------------|

Pre Chorus: Guitar 1 (Clean with Flange)
D|--------------------------------------------------------------------|
A|--------------------------------------------------------------------|
F|--------------------------------------------------------------------|
C|--------------------------------------------------------------------|
G|--------------------------------------------------------------------|
C|--------------8---8--8-8-----0---0--0-0-----5---5--5-5---8-8-8-8-8--|
                                                                      |
Pre Chorus: Guitar 2 (Distorted)                                      |
D|--------------------------------------------------------------------|
A|--10-11-10---10-10-8--8-10--10-10-8--8-10--10-10-8--8-10-10---------|
F|--------------------------------------------------------------------|
C|--------------------------------------------------------------------|
G|--------------------------------------------------------------------|
C|--------------------------------------------------------------------|

Chorus: Guitars 1 & 2 (Distorted)
D|--------------------------------------------------------------------|
A|--------------------------------------------------------------------|
F|--------------------------------------------------------------------|
C|--0----10----10----8--------------0----10----10----8----------------|
G|--0----10----10----8--------------0----10----10----8----------------|
C|--0----10----10----8---5-7-8-10---0----10----10----8---5-7-8-10-----|

Chorus: Guitars 1 (Distorted)
D|----------------------|---------------------------------------------|
A|----------------------|---------------------------------------------|
F|----------------------|---------------------------------------------|
C|--0----7----10----x-5-|--3-3-3-3--5-5-5-5--3-3-3-3--5-5-5-5--0------|
G|--0----7----10----x-5-|--1-1-1-1--3-3-3-3--1-1-1-1--3-3-3-3--0------|
C|--0----7----10----x-5-|--------------------------------------0------|
                                                                      |
Chorus: Guitars 2 (Distorted)                                         |
D|----------------------|--------5-6-5-3-5-3-----5-6-5-3-5-3----------|
A|----------------------|--6-----------------6-3---------------6------|
F|----------------------|---------------------------------------------|
C|--0----7----10----x-5-|---------------------------------------------|
G|--0----7----10----x-5-|---------------------------------------------|
C|--0----7----10----x-5-|---------------------------------------------|

Verse 2: Guitar 1 (Clean with Flange)
D|--------------------------------------------------------------------|
A|--------------------------------------------------------------------|
F|--------------2--------3---2-----------------2-----------5----------|
C|-----------------0--3---------------------------0--3--0-------------|
G|--------------------------------------------------------------------|
C|--3b-v----0----------------------3b-v----0--------------------------|

Verse 2: Guitar 1
D|--------------------------------------------------------------------|
A|--------------------------------------------------------------------|
F|--------------2--------3---2------------3------2--------------------|
C|-----------------0--3---------------------------------3-------------|
G|--------------------------------------------------------------------|
C|--3b-v----0----------------------1----------------------------------|

Pre Chorus: Guitar 1 (Clean with Flange)
D|--------------------------------------------------------------------|
A|--------------------------------------------------------------------|
F|--------------------------------------------------------------------|
C|--------------------------------------------------------------------|
G|--------------------------------------------------------------------|
C|--------------8---8--8-8-----0---0--0-0-----5---5--5-5---8-8-8-8-8--|
                                                                      |
Pre Chorus: Guitar 2 (Distorted)                                      |
D|--------------------------------------------------------------------|
A|--10-11-10---10-10-8--8-10--10-10-8--8-10--10-10-8--8-10-10---------|
F|--------------------------------------------------------------------|
C|--------------------------------------------------------------------|
G|--------------------------------------------------------------------|
C|--------------------------------------------------------------------|

Chorus: Guitars 1 & 2 (Distorted)
D|--------------------------------------------------------------------|
A|--------------------------------------------------------------------|
F|--------------------------------------------------------------------|
C|--0----10----10----8--------------0----10----10----8----------------|
G|--0----10----10----8--------------0----10----10----8----------------|
C|--0----10----10----8---5-7-8-10---0----10----10----8---5-7-8-10-----|

Chorus: Guitars 1 (Distorted)
D|----------------------|---------------------------------------------|
A|----------------------|---------------------------------------------|
F|----------------------|---------------------------------------------|
C|--0----7----10----x-5-|--3-3-3-3--5-5-5-5--3-3-3-3--5-5-------------|
G|--0----7----10----x-5-|--1-1-1-1--3-3-3-3--1-1-1-1--3-3-------------|
C|--0----7----10----x-5-|----------------------------------5-7-8-10---|
                                                                      |
Chorus: Guitars 2 (Distorted)                                         |
D|----------------------|--------5-6-5-3-5-3--------------------------|
A|----------------------|--6-----------------6-3----------------------|
F|----------------------|---------------------------------------------|
C|--0----7----10----x-5-|---------------------------------------------|
G|--0----7----10----x-5-|---------------------------------------------|
C|--0----7----10----x-5-|---------------------------------------------|

Bridge: Guitars 1 & 2 (Distorted)
D|--------------------------------------------------------------------|
A|--------------------------------------------------------------------|
F|--------------------------------------------------------------------|
C|--------------------------------------------------------------------|
G|--------------------------------------------------------------------|
C|--5---5---5---5---5---5--8-7-5-3--0---0---0---0---0---0--5-7-8-10---|

Bridge: Guitars 1 & 2 (Distorted)
D|--------------------------------------------------------------------|
A|--------------------------------------------------------------------|
F|--------------------------------------------------------------------|
C|--------------------------------------------------------------------|
G|--------------------------------------------------------------------|
C|--5---5---5---5---5---5--8-7-5-3--0---0---0---10---------5-7-8-10---|

Bridge: Guitars 1 & 2 (Distorted)
D|--------------------------------------------------------------------|
A|--------------------------------------------------------------------|
F|--------------------------------------------------------------------|
C|--8---8---x-----0--------x--x--10-----------------------------------|
G|--8---8---x-----0--------x--x--10-----------------------------------|
C|--8---8---x-----0--------x--x--10-----------------------------------|

Chorus: Guitars 1 & 2 (Distorted)
D|--------------------------------------------------------------------|
A|--------------------------------------------------------------------|
F|--------------------------------------------------------------------|
C|--0----10----10----8--------------0----10----10----8----------------|
G|--0----10----10----8--------------0----10----10----8----------------|
C|--0----10----10----8---5-7-8-10---0----10----10----8---5-7-8-10-----|

Chorus: Guitars 1 (Distorted)
D|----------------------|---------------------------------------------|
A|----------------------|---------------------------------------------|
F|----------------------|---------------------------------------------|
C|--0----7----10----x-5-|--3-3-3-3--5-5-5-5--3-3-3-3--5-5-5-5---------|
G|--0----7----10----x-5-|--1-1-1-1--3-3-3-3--1-1-1-1--3-3-3-3---------|
C|--0----7----10----x-5-|---------------------------------------------|
                                                                      |
Chorus: Guitars 2 (Distorted)                                         |
D|----------------------|--------5-6-5-3-5-3-----5-6-5-3-5-3----------|
A|----------------------|--6-----------------6-3-------------6--------|
F|----------------------|---------------------------------------------|
C|--0----7----10----x-5-|---------------------------------------------|
G|--0----7----10----x-5-|---------------------------------------------|
C|--0----7----10----x-5-|---------------------------------------------|

Outro: Guitars 1 & 2 (Distorted) PLAY OUTRO 2 TIMES
D|--------------------------------------------------------------------|
A|--------------------------------------------------------------------|
F|---------------------------------------------------------5-5-5/7----|
C|----------0---7--0--3--8-0-7-0-----------0---7--0--3--0--5-5-5/7----|
G|----------0---7--0--3--8-0-7-0-----------0---7--0--3--0--3-3-3/5----|
C|--3b-v----0---7--0--3--8-0-7-0---3b-v----0---7--0--3--0-------------|

Finished
Tap to rate this tab
 
# A B C D E F G H I J K L M N O P Q R S T U V W X Y Z