Song name
# A B C D E F G H I J K L M N O P Q R S T U V W X Y Z

Three Days Grace - Bully tab

-----------------------------------------------------------------------------
			     Bully - Three days Grace
-----------------------------------------------------------------------------
Tabbed by:dbt129
Email:sgexperience@hotmail.com

This is my first tab so it probably sucks, but thought I'd give it a try.

Tuning:Drop C (CGCFAD)

Intro

e|----------------------------------------|
B|----------------------------------------| 
G|------------------------------------5+--|2X (second time without harmonics)
D|-4-3-3-0-0-0-0-0-0----4-3-3-0-0-0-0-5+--|
A|-4-3-3-0-0-0-0-0-0----4-3-3-0-0-0-0-5+--|
E|-4-3-3-0-0-0-0-0-0----4-3-3-0-0-0-0-----|

Verse

e|----------------------------------------|  -|
B|----------------------------------------|   |
G|------------------------------------5+--|   |
D|-4-3-3-0-0-0-0-0-0----4-3-3-0-0-0-0-5+--|   |
A|-4-3-3-0-0-0-0-0-0----4-3-3-0-0-0-0-5+--|   |
E|-4-3-3-0-0-0-0-0-0----4-3-3-0-0-0-0-----|   |
   . . . . . . . . .    . . . . . . .         } 2X
e|----------------------------------------|   |
B|----------------------------------------|   |
G|----------------------------------------|   |
D|-4-3-3-0-0-0-0-0-0--10~~~--5~~~-5-------|   |
A|-4-3-3-0-0-0-0-0-0--10~~~--5~~~-5-------|   |
E|-4-3-3-0-0-0-0-0-0--10~~~--5~~~-5-------|  -|
   . . . . . . . . .     

Chorus

e|---------------------|    -|
B|------------------3~-|     |
G|------------------2~-| 3X  |
D|--3h5-6-5p3p0-3-0-0~-|     |
A|--3h5-6-5p3p0-3-0-0~-|     | 
E|--3h5-6-5p3p0-3-0-0~-|     | 
                             }2X (on 2nd time only play first part 2X)
e|---------------------|     |
B|---------------------|     |
G|---------------------|     |      
D|---10~~X-x--5~~~-----|     |
A|---10~~X-X--5~~~-----|     |
E|---10~~X-X--5~~~-----|    -|

Verse 2
e|----------------------------------------|  -|
B|----------------------------------------|   |
G|------------------------------------5+--|   |
D|-4-3-3-0-0-0-0-0-0----4-3-3-0-0-0-0-5+--|   |
A|-4-3-3-0-0-0-0-0-0----4-3-3-0-0-0-0-5+--|   |
E|-4-3-3-0-0-0-0-0-0----4-3-3-0-0-0-0-----|   |
   . . . . . . . . .    . . . . . . .         } 2X
e|----------------------------------------|   |
B|----------------------------------------|   |
G|----------------------------------------|   |
D|-4-3-3-0-0-0-0-0-0--10~~~--5~~~-5-------|   |
A|-4-3-3-0-0-0-0-0-0--10~~~--5~~~-5-------|   |
E|-4-3-3-0-0-0-0-0-0--10~~~--5~~~-5-------|  -|
   . . . . . . . . .     

Chorus 2

e|---------------------|    -|
B|------------------3~-|     |
G|------------------2~-| 3X  |
D|--3h5-6-5p3p0-3-0-0~-|     |
A|--3h5-6-5p3p0-3-0-0~-|     | 
E|--3h5-6-5p3p0-3-0-0~-|     | 
                             }2X
e|---------------------|     |
B|---------------------|     |
G|---------------------|     |      
D|---10~~X-x--5~~~-----|     |
A|---10~~X-X--5~~~-----|     |
E|---10~~X-X--5~~~-----|    -|

Bridge

e|-------------------------|
B|-------------------------|
G|-------------------------| 4X
D|-0-0-5-001-0-0-5-00------|
A|-------------------------|
E|-------------------3b----|
   . . . ... . . . ..

e|-------------------------|
B|-------------------------|
G|-------------------------| 4X
D|-0-0-5-001-0-0-5-003-----|
A|-0-0-5-001-0-0-5-003-----|
E|-0-0-5-001-0-0-5-003-----|
   
e|-------------------------|    |----------|
B|-------------------------|    |----------|
G|-------------------------| 5X |----------|
D|-0-0-5-001~~-0-0-5-003~~-|    |--10~~-10-|
A|-0-0-5-001~~-0-0-5-003~~-|    |--10~~-10-|
E|-0-0-5-001~~-0-0-5-003~~-|    |--10~~-10-|

Chorus 3


e|---------------------|    -|
B|------------------3~-|     |
G|------------------2~-| 3X  |
D|--3h5-6-5p3p0-3-0-0~-|     |
A|--3h5-6-5p3p0-3-0-0~-|     | 
E|--3h5-6-5p3p0-3-0-0~-|     | 
                             }2X
e|---------------------|     |
B|---------------------|     |
G|---------------------|     |      
D|---10~~X-x--5~~~-----|     |
A|---10~~X-X--5~~~-----|     |
E|---10~~X-X--5~~~-----|    -|

Outro

e|----------------------------------------|
B|----------------------------------------| 
G|------------------------------------5+--|
D|-4-3-3-0-0-0-0-0-0----4-3-3-0-0-0-0-5+--|
A|-4-3-3-0-0-0-0-0-0----4-3-3-0-0-0-0-5+--|
E|-4-3-3-0-0-0-0-0-0----4-3-3-0-0-0-0-----|


| /  slide up
| \  slide down
| h  hammer-on
| p  pull-off
| ~  vibrato
| +  harmonic
| x  Mute note
===============================================================================
Tap to rate this tab
# A B C D E F G H I J K L M N O P Q R S T U V W X Y Z