Song name
# A B C D E F G H I J K L M N O P Q R S T U V W X Y Z

Three Days Grace - Goin Down tab

Three Days Grace
Goin Down
Tabbed by U B the band
Tuning D A D G B e

Legend
pm-palm mute                   v-vibrato                  *-harmonic

Intro: Guitar 1
e|--------------------------------------------------------------------|
B|------------------------------------------------------17----16------|
G|--------------14----------------------------14----------------------|
D|--14----15----------------------14----15----------------------------|
A|--------------------------------------------------------------------|
D|--------------------------------------------------------------------|

Verse 1: Guitar 1 PLAY 3 TIMES
e|--------------------------------------------------------------------|
B|----------------------------------------13--------12----------------|
G|----------------------14------------------------------------14------|
D|----------14----15--------------------------------------------------|
A|--------------------------------------------------------------------|
D|--------------------------------------------------------------------|

Verse 1: Guitar 1 PLAY 1 TIME
e|--------------------------------------------------------------------|
B|--------------------------------------------------------------------|
G|----------------------14--------------------------------------------|
D|----------14----15--------------------------------------------------|
A|--------------------------------------------------------------------|
D|--------------------------------------------------------------------|
                                                                      |
Verse 1: Guitar 2 (Distorted) PLAY 1 TIME                             |
e|--------------------------------------------------------------------|
B|--------------------------------------------------------------------|
G|--------------------------------------------------------------------|
D|--------------------------------3-3-3-3-3-3-3-3--3---3--------------|
A|--------------------------------3-3-3-3-3-3-3-3--3---3--------------|
D|--------------------------------3-3-3-3-3-3-3-3--3---3--------------|
                                  pmpmpmpmpmpmpmpm

Chorus: Guitars 1 & 2 (Distorted)
e|--------------------------------------------------------------------|
B|--------------------------------------------------------------------|
G|--------------------------------------------------------------------|
D|--12-0---0-3-0---0-6-7-6-0-3-0----0-12-0---0-3-0---0-6-7-6-0-3-0----|
A|--12-0---0-3-0---0-6-7-6-0-3-0----0-12-0---0-3-0---0-6-7-6-0-3-0----|
D|--12-0---0-3-0---0-6-7-6-0-3-0----0-12-0---0-3-0---0-6-7-6-0-3-0----|

Chorus: Guitar 1 (Distorted with WAH)
e|--------------------------------------------------------------------|
B|--------------------------------------------------------------------|
G|----------------------14-14-14-14----14v----------------------------|
D|-----------------------x--x--x--x-----------------------------------|
A|----------------------12-12-12-12-----------------------------------|
D|--------------------------------------------------------------------|
                                                                      |
Chorus: Guitar 2 (Distorted)                                          |
e|--------------------------------------------------------------------|
B|--------------------------------------------------------------------|
G|--------------------------------------------------------------------|
D|--7*--12-0---0-3-0---0-6-7-6-0-3-0---0--3--3--3--3--10--10--10--10--|
A|------12-0---0-3-0---0-6-7-6-0-3-0---0--3--3--3--3--10--10--10--10--|
D|------12-0---0-3-0---0-6-7-6-0-3-0---0--3--3--3--3--10--10--10--10--|

Post Chorus: Guitar 1
e|--------------------------------------------------------------------|
B|------------------------------------------------------17----16------|
G|--------------14----------------------------14----------------------|
D|--14----15----------------------14----15----------------------------|
A|--------------------------------------------------------------------|
D|--------------------------------------------------------------------|

Verse 2: Guitar 1 PLAY 3 TIMES
e|--------------------------------------------------------------------|
B|----------------------------------------13--------12----------------|
G|----------------------14------------------------------------14------|
D|----------14----15--------------------------------------------------|
A|--------------------------------------------------------------------|
D|--------------------------------------------------------------------|

Verse 2: Guitar 1 PLAY 1 TIME
e|--------------------------------------------------------------------|
B|--------------------------------------------------------------------|
G|----------------------14--------------------------------------------|
D|----------14----15--------------------------------------------------|
A|--------------------------------------------------------------------|
D|--------------------------------------------------------------------|
                                                                      |
Verse 2: Guitar 2 (Distorted) PLAY 1 TIME                             |
e|--------------------------------------------------------------------|
B|--------------------------------------------------------------------|
G|--------------------------------------------------------------------|
D|--------------------------------3-3-3-3-3-3-3-3--3---3--------------|
A|--------------------------------3-3-3-3-3-3-3-3--3---3--------------|
D|--------------------------------3-3-3-3-3-3-3-3--3---3--------------|
                                  pmpmpmpmpmpmpmpm

Chorus: Guitars 1 & 2 (Distorted) PLAY CHORUS 2 TIMES
e|--------------------------------------------------------------------|
B|--------------------------------------------------------------------|
G|--------------------------------------------------------------------|
D|--12-0---0-3-0---0-6-7-6-0-3-0----0-12-0---0-3-0---0-6-7-6-0-3-0----|
A|--12-0---0-3-0---0-6-7-6-0-3-0----0-12-0---0-3-0---0-6-7-6-0-3-0----|
D|--12-0---0-3-0---0-6-7-6-0-3-0----0-12-0---0-3-0---0-6-7-6-0-3-0----|

Chorus: Guitar 1 (Distorted with WAH)
e|--------------------------------------------------------------------|
B|--------------------------------------------------------------------|
G|----------------------14-14-14-14----14v----------------------------|
D|-----------------------x--x--x--x-----------------------------------|
A|----------------------12-12-12-12-----------------------------------|
D|--------------------------------------------------------------------|
                                                                      |
Chorus: Guitar 2 (Distorted)                                          |
e|--------------------------------------------------------------------|
B|--------------------------------------------------------------------|
G|--------------------------------------------------------------------|
D|--7*--12-0---0-3-0---0-6-7-6-0-3-0---0--3--3--3--3--10--10--10--10--|
A|------12-0---0-3-0---0-6-7-6-0-3-0---0--3--3--3--3--10--10--10--10--|
D|------12-0---0-3-0---0-6-7-6-0-3-0---0--3--3--3--3--10--10--10--10--|

Bridge: Guitars 1 & 2
e|--------------------------------------------------------------------|
B|--------------------------------------------------------------------|
G|--------------------------------------------------------------------|
D|--0-----12-----0-----7-----0-----10-----0-----5--------5--5--5------|
A|--0-----12-----0-----7-----0-----10-----0-----5--------5--5--5------|
D|--0-----12-----0-----7-----0-----10-----0-----5--------5--5--5------|

Bridge: Guitars 1 & 2
e|--------------------------------------------------------------------|
B|--------------------------------------------------------------------|
G|--------------------------------------------------------------------|
D|--0-----12-----0-----7-----0-----10---------10--10-----13--12-------|
A|--0-----12-----0-----7-----0-----10---------10--10-----13--12-------|
D|--0-----12-----0-----7-----0-----10---------10--10-----13--12-------|

Bridge: Guitars 1 & 2
e|--------------------------------------------------------------------|
B|--------------------------------------------------------------------|
G|--------------------------------------------------------------------|
D|--0-----12-----0-----7-----0-----10-----0-----5--------5--5--5------|
A|--0-----12-----0-----7-----0-----10-----0-----5--------5--5--5------|
D|--0-----12-----0-----7-----0-----10-----0-----5--------5--5--5------|

Bridge: Guitars 1 & 2
e|--------------------------------------------------------------------|
B|--------------------------------------------------------------------|
G|--------------------------------------------------------------------|
D|--0-----12-----0-----7-----0-----10--10--10--10--10--10--10--10-----|
A|--0-----12-----0-----7-----0-----10--10--10--10--10--10--10--10-----|
D|--0-----12-----0-----7-----0-----10--10--10--10--10--10--10--10-----|

Chorus: Guitars 1 (Distorted with FUZZ) PLAY 1 TIME
e|--------------------------------------------------------------------|
B|--------------------------------------------------------------------|
G|--------------------------------------------------------------------|
D|--12-0---0-3-0---0-6-7-6-0-3-0----0-12-0---0-3-0---0-6-7-6-0-3-0----|
A|--12-0---0-3-0---0-6-7-6-0-3-0----0-12-0---0-3-0---0-6-7-6-0-3-0----|
D|--12-0---0-3-0---0-6-7-6-0-3-0----0-12-0---0-3-0---0-6-7-6-0-3-0----|

Chorus: Guitars 1 & 2 (Distorted) PLAY CHORUS 2 TIMES
e|--------------------------------------------------------------------|
B|--------------------------------------------------------------------|
G|--------------------------------------------------------------------|
D|--12-0---0-3-0---0-6-7-6-0-3-0----0-12-0---0-3-0---0-6-7-6-0-3-0----|
A|--12-0---0-3-0---0-6-7-6-0-3-0----0-12-0---0-3-0---0-6-7-6-0-3-0----|
D|--12-0---0-3-0---0-6-7-6-0-3-0----0-12-0---0-3-0---0-6-7-6-0-3-0----|

Chorus: Guitar 1 (Distorted with WAH)
e|--------------------------------------------------------------------|
B|--------------------------------------------------------------------|
G|----------------------14-14-14-14----14v----------------------------|
D|-----------------------x--x--x--x-----------------------------------|
A|----------------------12-12-12-12-----------------------------------|
D|--------------------------------------------------------------------|
                                                                      |
Chorus: Guitar 2 (Distorted)                                          |
e|--------------------------------------------------------------------|
B|--------------------------------------------------------------------|
G|--------------------------------------------------------------------|
D|--7*--12-0---0-3-0---0-6-7-6-0-3-0---0--3--3--3--3--10--10--10--10--|
A|------12-0---0-3-0---0-6-7-6-0-3-0---0--3--3--3--3--10--10--10--10--|
D|------12-0---0-3-0---0-6-7-6-0-3-0---0--3--3--3--3--10--10--10--10--|

Finished

Tap to rate this tab
 
# A B C D E F G H I J K L M N O P Q R S T U V W X Y Z