Song name
# A B C D E F G H I J K L M N O P Q R S T U V W X Y Z

Three Days Grace - The Good Life tab

Three Days Grace
The Good Life
Drop D


|-------------------------------------|
|-------------------------------------|
|-------------------------------------|
|-0--0-7-8-0-5-6-0-1------------------|
|-------------------------------------|
|-------------------------------------|x3

|----------------------------------------|
|----------------------------------------|
|----------------------------------------|
|-0--0-6-5-0-6-5-0-3---------------------|
|----------------------------------------|
|----------------------------------------|x1

|----------------------------------------|
|----------------------------------------|
|----------------------------------------|
|-0--0-7-8-0-5-6-0-1~--------------------|
|-0--0-7-8-0-5-6-0-1~--------------------|
|-0--0-7-8-0-5-6-0-1~--------------------|x3
                                                  
|--------------------------------------|
|--------------------------------------|
|--------------------------------------|
|-0--0-6-5-0-6-5-0---------------------|
|-0--0-6-5-0-6-5-0---------------------|
|-0--0-6-5-0-6-5-0-3~------------------|x1

|-----------------------------------------|
|-----------------------------------------|
|-----------------------------------------|
|-0--0-7-8-0-5-6-0-1~---------------------|
|-0--0-7-8-0-5-6-0-1~---------------------|
|-0--0-7-8-0-5-6-0-1~---------------------|x3

|---------------------------------------|
|---------------------------------------|
|---------------------------------------|
|-0--0-6-5-0-6-5-0----------------------|
|-0--0-6-5-0-6-5-0----------------------|
|-0--0-6-5-0-6-5-0-3~-------------------|x1




Tap to rate this tab
 
# A B C D E F G H I J K L M N O P Q R S T U V W X Y Z