Song name
# A B C D E F G H I J K L M N O P Q R S T U V W X Y Z

Three Days Grace - No More tab

-------------------------------------------------------------------------------
                          NO MORE: Three Days Grace
-------------------------------------------------------------------------------
Tabbed by: TheThirdDay
Email: TheThirdDaySH@gmail.com

One of my favorite songs on the album. The rhythm guitar is basically five
different power chords:
e|---------------------|
b|---------------------|
g|---------------------|
d|-0---2---4---7---9---|
a|-0---2---4---7---9---|
d|-0---2---4---7---9---|
   D   E   F#  A   B
while lead is much more complex. Rhythm is about as easy as you get on the
album. (b ^_^)b

Lyrics straight from the CD booklet.

---

RHYTHM GUITAR:

Intro:

The rhythm guitar is absent from this section, but if you just want to
play something, I suggest playing the B and then the D for two measures
each until the verse

Verse:

B                      D
Give me a reason to stay here
       B                   D
'Cause I don't wanna live in fear



Pre-chorus:

F#
I can't stop the rain
A   E
But I can stop the tears
A   F#
Oh, I can fight the fire
A   E
But I can't fight the fear



Chorus:
A  D   
No more
  F#                    A  D
I just can't live here (No more)
        A                       A  E
I can't take it, can't take it (No more)
                 A D
What do we stand for

When we all live in fear



Pre-Verse:

F# D



Bridge (Solo):

F# A E A (repeat until chorus)



LEAD GUITAR:

Intro:

This is too complex for my basic tabbing skills; when someone else comes up
with a good tab, I'll update this.



Verse:

(same riff as the intro)



Pre-chorus:

e|----------------------------------------------------------------|
b|----------------------------------------------------------------|
g|-14--------------13--------------13b14r13b14-----13-------------|
d|----------------------------------------------------------------|
a|----------------------------------------------------------------|
d|----------------------------------------------------------------| x4
   1   &   2   &   3   &   4   &   1   &   2   &   3   &   4   &   



Chorus (Not 100% sure about this):

e|---------------------------------|
b|---------------------------------|
g|-14----14----14--13----13----13--|
d|---------------------------------|
a|---------------------------------|
d|---------------------------------| (repeat throughout chorus.)
   1   &   2   &   3   &   4   &


Pre-verse:

(same riff as the intro)


Bridge (Solo):


e|----------------------------------------|
b|----------------------------------------|
g|-14-13b14-13-14-13b14-13-14-15b16-15b16-|
d|----------------------------------------|
a|----------------------------------------|
d|----------------------------------------| x3

e|----------------------------------------|
b|----------------------------16b17-------|
g|-13b14-13-14-13b14-13-14----------------|
d|----------------------------------------|
a|----------------------------------------|
d|----------------------------------------| x1
Tap to rate this tab
 
# A B C D E F G H I J K L M N O P Q R S T U V W X Y Z