Song name
# A B C D E F G H I J K L M N O P Q R S T U V W X Y Z

Three Days Grace - Without You tab

-------------------------------------------------------------------------------
                       WITHOUT YOU: Three Days Grace
-------------------------------------------------------------------------------
Tabbed by: TheThirdDay
Email: TheThirdDaySH@gmail.com

One of my favorites off of Life Starts Now. Pretty basic song, even the solo is
easy. Played from Drop D. I tabbed this partially by mariewong's bass tab and
ear. What mariewong tabbed seems pretty good, but the parts tabbed may be off.
Rate it based off it's accuracy.


------------------------------------------------


Intro Riff:

Guitar 2:

e|----------------------------------------------|
b|----------------------------------------------|
g|----------------------------------------------|
d|----------------------------------------------|
a|-999999-121212121212-555555555555-------------|
d|-999999-121212121212-555555555555-------------| x2
          ^12's


Verse Riff:

Guitar 2:

e|----------------------------------------------|
b|----------------------------------------------|
g|----------------------------------------------|
d|----------------------------------------------|
a|-999999-121212121212-555555555555-------------|
d|-999999-121212121212-555555555555-------------| x2
          ^12's

e|----------------------------------------------|
b|----------------------------------------------|
g|----------------------------------------------|
d|----------------------------------------------|
a|-777777-999999-555555555555-------------------|
d|-777777-999999-555555555555-------------------| x2

(Then guitar 1 comes in with a riff that I'm still figuring out while Guitar 2
repeats this.)

Chorus Riff:

Guitar 2:

e|----------------------------------------------|
b|----------------------------------------------|
g|----------------------------------------------|
d|-12-12-12-12-12-12-12-12-0-0-0-0-0-0-0-0------|
a|-12-12-12-12-12-12-12-12-0-0-0-0-0-0-0-0------|    (First 2 repititions=1/8ths
d|-12-12-12-12-12-12-12-12-0-0-0-0-0-0-0-0------| x3  Third repitition=1/16ths)
   ^ 12's

Guitar 1 (This could be off, feedback is appreciated):

e|----------------------------------------------|
b|----------------------------------------------|
g|----------------------------------------------|
d|-12-12-12-12-12-12-12-12-0-0-7-7-5-5-4h5p4----|
a|----------------------------------------------|
d|----------------------------------------------| x2
   ^12's
e|---------------------------------------------------------|
b|---------------------------------------------------------|
g|---------------------------------------------------------|
d|-12121212121212121212121212121212-10101010-7777-5555-454-|
a|---------------------------------------------------------|
d|---------------------------------------------------------| x1
                   ^ 12's           ^10's
Guitars 1 & 2:

e|----------------------------------------------|
b|----------------------------------------------|
g|----------------------------------------------|
d|-4-4-4-4-4-4-4-442-2-2-2----------------------|
a|-4-4-4-4-4-4-4-442-2-2-2----------------------|
d|-4-4-4-4-4-4-4-442-2-2-2----------------------| x1 (First chorus only)

e|----------------------------------------------|
b|----------------------------------------------|
g|----------------------------------------------|
d|-9-9-9-9-9-9-9-997-7-7-7----------------------|
a|-9-9-9-9-9-9-9-997-7-7-7----------------------|
d|-9-9-9-9-9-9-9-997-7-7-7----------------------| x1 (Second/third Choruses)


Solo (Not 100% sure of this):

Guitar 1:

e|-12--12-14h15p14--14-12-15h17p15-|
b|---------------------------------|
g|---------------------------------|
d|---------------------------------|
a|---------------------------------|
d|---------------------------------|


e|-14-15-14-12--15-14-12--11b-|
b|----------------------------|
g|----------------------------|
d|----------------------------|
a|----------------------------|
d|----------------------------|


e|-11b-11b-11b-11h12p11-----11h12p11----|
b|----------------------11-----------10-|
g|--------------------------------------|
d|--------------------------------------|
a|--------------------------------------|
d|--------------------------------------|


e|-14--14-17b-14-15--14-15-14-12--15-14-12-|
b|-----------------------------------------|
g|-----------------------------------------|
d|-----------------------------------------|
a|-----------------------------------------|
d|-----------------------------------------|


e|-12b-13--12b-12b-12b-12h13p12-----11h12p11-----|
b|------------------------------11-----------10--|
g|-----------------------------------------------|
d|-----------------------------------------------|
a|-----------------------------------------------|
d|-----------------------------------------------|

Guitar 2:

e|--------------------------------------------------|
b|--------------------------------------------------|
g|--------------------------------------------------|
d|-12---12-10-9-10---10---3-33333-5---5-5-7-8---8-7-|
a|-12---12-10-9-10---10---3-33333-5---5-5-7-8---8-7-|
d|-12---12-10-9-10---10---3-33333-5---5-5-7-8---8-7-| x2

Bridge:

Guitar 2 only:

e|----------------------|
b|----------------------|
g|-5----5-------7-------|
d|-5----5-------7-------|
a|-3----3-------5-------|
d|----------------------| x3

Guitars 1 & 2:

e|----------------------------------------------|
b|----------------------------------------------|
g|----------------------------------------------|
d|-9-9-9-9-9-9-9-997-7-7-7----------------------|
a|-9-9-9-9-9-9-9-997-7-7-7----------------------|
d|-9-9-9-9-9-9-9-997-7-7-7----------------------|

Outro:

Guitars 1 & 2:

e|----------------------------------------------|
b|----------------------------------------------|
g|----------------------------------------------|
d|-9---9---9---9---7-------7--------------------|
a|-9---9---9---9---7-------7--------------------|
d|-9---9---9---9---7-------7--------------------|
Tap to rate this tab
 
# A B C D E F G H I J K L M N O P Q R S T U V W X Y Z