Song name
# A B C D E F G H I J K L M N O P Q R S T U V W X Y Z

Three Days Grace - The Good Life tab

The intro to this song is amazing!!!  please rate this tab. hope u like it.

Intro
e-----------------------------------------|
b-----------------------------------------|
g-----------------------------------------|
d-----------------------------------------|
a-----------------------------------------|
d-0--0-7-8-0-5-6-0-1--0--0-7-8-0-5-6-0-1--|

e-----------------------------------------|
b-----------------------------------------|
g-----------------------------------------|
d-----------------------------------------|x3
a-----------------------------------------|
d-0--0-7-8-0-5-6-0-1--0--0-6-5-0-6-5-0-3--|
use heavy distortion after playing it one time through

Verse 1
e-----------------------------------------|
b-----------------------------------------|
g-----------------------------------------|
d------------------1-------------------1--|
a------------------1-------------------1--|
d-0--0-7-8-0-5-6-0-1--0--0-7-8-0-5-6-0-1--|

e-----------------------------------------|
b-----------------------------------------|
g-----------------------------------------|
d------------------1-------------------1--|
a------------------1-------------------1--|
d-0--0-7-8-0-5-6-0-1--0--0-6-5-0-6-5-0-1--|

e-----------------------------------------|
b-----------------------------------------|
g-----------------------------------------|
d------------------1-------------------1--|
a------------------1-------------------1--|
d-0--0-7-8-0-5-6-0-1--0--0-7-8-0-5-6-0-1--|

Pre-Chorus
e-----------------|
b-----------------|
g-----------------|
d-----------------|
a-----------------|
d-8--8--8--8-5-7--|

Chorus
e---------------------------------------------------------|
b---------------------------------------------------------|
g---------------------------------------------------------|
d---------------------------------------------------------|x2
a---------------------------------------------------------|
d-0--0--0--3--5--5--5--8--0--0--0--3--5--5--5--10-8-8-8-7-|

Verse 2
e-----------------------------------------|
b-----------------------------------------|
g-----------------------------------------|
d-----------------------------------------|
a-----------------------------------------|
d-0--0-7-8-0-5-6-0-1--0--0-7-8-0-5-6-0-1--|

e-----------------------------------------|
b-----------------------------------------|
g-----------------------------------------|
d-----------------------------------------|
a-----------------------------------------|
d-0--0-7-8-0-5-6-0-1--0--0-6-5-0-6-5-0-3--|

e-----------------------------------------|
b-----------------------------------------|
g-----------------------------------------|
d------------------1-------------------1--|
a------------------1-------------------1--|
d-0--0-7-8-0-5-6-0-1--0--0-7-8-0-5-6-0-1--|

e-----------------------------------------|
b-----------------------------------------|
g-----------------------------------------|
d------------------1-------------------1--|
a------------------1-------------------1--|
d-0--0-7-8-0-5-6-0-1--0--0-6-5-0-6-5-0-1--|

e-----------------------------------------|
b-----------------------------------------|
g-----------------------------------------|
d------------------1-------------------1--|
a------------------1-------------------1--|
d-0--0-7-8-0-5-6-0-1--0--0-7-8-0-5-6-0-1--|

Pre-Chorus
e-----------------|
b-----------------|
g-----------------|
d-----------------|
a-----------------|
d-----------------|

Chorus
e---------------------------------------------------------|
b---------------------------------------------------------|
g---------------------------------------------------------|
d---------------------------------------------------------|x2
a---------------------------------------------------------|
d-0--0--0--3--5--5--5--8--0--0--0--3--5--5--5--10-8-8-8-7-|

Bridge
e--------------------------------------------------------|
b--------------------------------------------------------|
g--------------------------------------------------------|
d--------------------------------------------------------|x2
a--------------------------------------------------------|
d--------------------------------------------------------|

e--------------------------------------|
b--------------------------------------|
g--------------------------------------|
d--------------------------------------|
a--------------------------------------|
d--------------------------------------|

Bridge 2
e---------------------------------|
b---------------------------------|
g---------------------------------|
d---------------------------------|
a---------------------------------|
d---------------------------------|

Chorus
e---------------------------------------------------------|
b---------------------------------------------------------|
g---------------------------------------------------------|
d---------------------------------------------------------|x2
a---------------------------------------------------------|
d---------------------------------------------------------|

Outro
Intro
e-----------------------------------------|
b-----------------------------------------|
g-----------------------------------------|
d-----------------------------------------|
a-----------------------------------------|
d-0--0-7-8-0-5-6-0-1--0--0-7-8-0-5-6-0-1--|

e---------------------------------------------|
b---------------------------------------------|
g---------------------------------------------|
d---------------------------------------------|
a---------------------------------------------|
d-0--0-7-8-0-5-6-0-1--0--0-6-5-0-6-5-0-3--0-0-|
Tap to rate this tab
# A B C D E F G H I J K L M N O P Q R S T U V W X Y Z