Song name
# A B C D E F G H I J K L M N O P Q R S T U V W X Y Z

Three Days Grace - Last To Know tab

-------------------------------------------------------------------------------
			     LAST TO KNOW - Three Days Grace
-------------------------------------------------------------------------------
Tabbed by: mariewong
Email: wlj_marie@hotmail.com

Tuning: Standard





Intro:

e|------------------------------0---2~--|
B|---0-----0------------0---3-------3~--|
G|-2-----2-----2-0--2---------------2~--|
D|-2----------------2---------------0~--|
A|-2---2-----2------3-3---3---3---3-----|
E|--------------------------------------|



Verse:
She just walked away 
Why didn't she tell me 
And where do I go tonight 
This isn't happening to me 
This can't be happening to me 
She didn't say a word 
Just walked away 

e|------------------------------0---2--|
B|---0-----0------------0---3-------3--|
G|-2-----2-----2-0--2---------------2--|
D|-2----------------2---------------0--|
A|-2---2-----2------3-3---3---3---3----|
E|-------------------------------------|

e|-----------------------------------------|
B|---0-----0----------------0---3---5-3-5--|
G|-2-----2-----2-0--0---2------------------|
D|-2----------------2----------------------|
A|-2---2-----2------3-3---3---3---3--------|
E|-----------------------------------------|

e|------------------------------0---2--|
B|---0-----0------------0---3-------3--|
G|-2-----2-----2-0--2---------------2--|
D|-2----------------2---------------0--|
A|-2---2-----2------3-3---3---3---3----|
E|-------------------------------------|

e|-----------------------------------------|
B|---0-----0----------------0---3---5-3-5--|
G|-2-----2-----2-0--0---2------------------|
D|-2----------------2----------------------|
A|-2---2-----2------3-3---3---3---3--------|
E|-----------------------------------------|

e|-------------------------------------|
B|---0-----0----------------0---3---5--|
G|-2-----2-----2-0--0---2--------------|
D|-2----------------2------------------|
A|-2---2-----2------3-3---3---3---3----|
E|-------------------------------------|

e|-2h3-----0---0-2-0------|
B|-----0-3---3---3---3----|
G|-------0---0---2-----2--|
D|-2-------------0--------|
A|-------3---3------------|
E|------------------------|



Chorus:
You were the first to say 
That we were not okay 
You were the first to lie 
When we were not alright 
This was my first love 
She was the first to go 
And when she left me for you 
I was the last to know 

e|-2h3-------0-------0-2--|-2h3-------0---0-2-0------|
B|-----0-3-0---3-0-3-3----|-----0-3-0---3---3---3-0--|
G|-------0-----0-----2----|-------0-----0---2--------|
D|-2-----------------0----|-2---------------0--------|
A|-------3-----3----------|-------3-----3------------|
E|------------------------|--------------------------|

e|-2h3-------0-------0-2--|-2-0---------------------0-2---2-3-0----|
B|-----0-3-0---3-0-3-3----|-0-----0---0-----------3---3-3-------3--|
G|-------0-----0-----2----|-0---2-----------------0---2------------|
D|-2-----------------0----|-2---2---2---2-4-5-4-2-2---0------------|
A|-------3-----3----------|-----3-----------------3----------------|
E|------------------------|----------------------------------------|



Verse:
Why didn't she tell me 
Where to go tonight 
She didn't say a word 
She just walked away 

e|------------------------------0---2--|
B|---0-----0------------0---3-------3--|
G|-2-----2-----2-0--2---------------2--|
D|-2----------------2---------------0--|
A|-2---2-----2------3-3---3---3---3----|
E|-------------------------------------|

e|-----------------------------------------|
B|---0-----0----------------0---3---5-3-5--|
G|-2-----2-----2-0--0---2------------------|
D|-2----------------2----------------------|
A|-2---2-----2------3-3---3---3---3--------|
E|-----------------------------------------|

e|------------------------------0---2--|
B|---0-----0------------0---3-------3--|
G|-2-----2-----2-0--2---------------2--|
D|-2----------------2---------------0--|
A|-2---2-----2------3-3---3---3---3----|
E|-------------------------------------|

e|-------------------------------------|
B|---0-----0----------------0---3---5--|
G|-2-----2-----2-0--0---2--------------|
D|-2----------------2------------------|
A|-2---2-----2------3-3---3---3---3----|
E|-------------------------------------|


e|---0-2-0------|
B|-3---3---3----|
G|-0---2-----2--|
D|-----0--------|
A|-3------------|
E|--------------|


Chorus:
You were the first to say 
That we were not okay 
You were the first to lie 
When we were not alright 
This was my first love 
She was the first to go 
And when she left me for you 
I was the last to know 

e|-2h3-------0-------0-2--|-2h3-------0---0-2-0------|
B|-----0-3-0---3-0-3-3----|-----0-3-0---3---3---3-0--|
G|-------0-----0-----2----|-------0-----0---2--------|
D|-2-----------------0----|-2---------------0--------|
A|-------3-----3----------|-------3-----3------------|
E|------------------------|--------------------------|

e|-2h3-------0-------0-2--|-2-0---------------------0-2---2-3-0----|
B|-----0-3-0---3-0-3-3----|-0-----0---0-----------3---3-3-------3--|
G|-------0-----0-----2----|-0---2-----------------0---2------------|
D|-2-----------------0----|-2---2---2---2-4-5-4-2-2---0------------|
A|-------3-----3----------|-----3-----------------3----------------|
E|------------------------|----------------------------------------|



Bridge:

e|-------0-0-------0-0-1-0-3-0-0-1-0------|
B|-1-1-3-------1-3-----3-----------0-0----|
G|-0---------2---------2-----------0---0--|
D|-2---------2---------0-----------2-2----|
A|-3---------0-------------------------3--|
E|----------------------------------------|

Chorus:
I'll be the first to say
That now I'm okay
And for the first time
I've opened up my eyes
This was my worst love
You'll be the first to go
And when she leaves you for dead
You'll be the last to know

e|-2h3-------0-------0-2--|-2h3-------0---0-2-0------|
B|-----0-3-0---3-0-3-3----|-----0-3-0---3---3---3-0--|
G|-------0-----0-----2----|-------0-----0---2--------|
D|-2-----------------0----|-2---------------0--------|
A|-------3-----3----------|-------3-----3------------|
E|------------------------|--------------------------|

e|-2h3-------0-------0-2--|-2-0---------------------0-2---2-3-0----|
B|-----0-3-0---3-0-3-3----|-0-----0---0-----------3---3-3-------3--|
G|-------0-----0-----2----|-0---2-----------------0---2------------|
D|-2-----------------0----|-2---2---2---2-4-5-4-2-2---0------------|
A|-------3-----3----------|-----3-----------------3----------------|
E|------------------------|----------------------------------------|



Chorus:
I'll be the first to say
That now I'm okay
And for the first time
I've opened up my eyes
This was my worst love
You'll be the first to go
And when she leaves you for dead
You'll be the last to know

e|-2h3-------0-------0-2--|-2h3-------0---0-2-0------|
B|-----0-3-0---3-0-3-3----|-----0-3-0---3---3---3-0--|
G|-------0-----0-----2----|-------0-----0---2--------|
D|-2-----------------0----|-2---------------0--------|
A|-------3-----3----------|-------3-----3------------|
E|------------------------|--------------------------|

e|-2h3-------0-------0-2--|-2-0---------------------0-2---2-3-2-0-------|
B|-----0-3-0---3-0-3-3----|-0-----0---0-----------3---3-3---------3-0~--|
G|-------0-----0-----2----|-0---2-----------------0---2-------------0~--|
D|-2-----------------0----|-2---2---2---2-4-5-4-2-2---0-------------2~--|
A|-------3-----3----------|-----3-----------------3-----------------2~--|
E|------------------------|---------------------------------------------|








| /  slide up
| \  slide down
| h  hammer-on
| p  pull-off
| ~  vibrato
| +  harmonic
| x  Mute note
===============================================================================
Tap to rate this tab
 
# A B C D E F G H I J K L M N O P Q R S T U V W X Y Z