Song name
# A B C D E F G H I J K L M N O P Q R S T U V W X Y Z

Three Days Grace - Last To Know tab

Last to Know
Guitar: (piano)
Tuning: E A D G B e

Note: this is my first tab...take it easy. um...this is just the piano part of the song
any changes e-mail me at ggpetitgout@yahoo.com

thanks, hope this helps!

Intro/ Verse 1

|------------------------------------------------------|
|--------------------------------3------5-------7------|      x2
|-2--4--------2---4--2---4-----------------------------|
|-2-------------------2--------------------------------|
|-2------2------------3------3-----3------3------------|
|------------------------------------------------------|

|----------------------------------------------------------------|
|---------------------------------------------3-----5---3---5----|
|-2--4--------2---4--4-------2------4----------------------------|
|-2------------------2-------------------------------------------|
|-2------2-----------3----3-----3------3-----3-------------------|
|----------------------------------------------------------------|

|----------------------------------------------------------|
|--------------------------------3------5-------7----------|
|-2--4--------2---4--2---4---------------------------------|
|-2------------------2-------------------------------------|
|-2------2-----------3------3-----3------3-----------------|
|----------------------------------------------------------|

|-----------------------------------------------------------------|
|---------------------------------------------3-----5---3---5-----|  x2
|-2--4--------2---4--4-------2------4-----------------------------|
|-2-------------------2-------------------------------------------|
|-2------2------------3----3-----3------3-----3-------------------|
|-----------------------------------------------------------------|

|-2--3-------------------------2----0---------0------------------|
|--------0---------------------3----------3----------------------|
|-------------0-------0------------------------------------------|
|-2----------0---2---0---2---0-----------------------------------|
|-------------3-------3--------0---------------------0-----------|
|----------------------------------------------------------------|

Chorus:

|-2--3---------------0-----------------0---2---|
|--------0-------0-----------0---3----0--------|
|-------------0-----------0--------------------|
|-2-----------0----------0------------7--------|
|-------------3-----------3--------------------|
|----------------------------------------------|

|-2h3-------------------2------------------|
|------------------------3-----5-----3-----|
|---------4---0---4---------------------4--|
|-2-----------0---------0------------------|
|-------------3----------0-----------------|
|------------------------------------------|

|-2--3---------------0-----------------0---2---|
|--------0-------0-----------0---3----0--------|
|-------------0-----------0--------------------|
|-2-----------0----------0------------7--------|
|-------------3-----------3--------------------|
|----------------------------------------------|

|--2--0-------------------2---4---2--------------2-------2---4---2--------|
|----------------5----5-------------5-----3---5-------------------------5-|
|--0----5---4-----4----------------------0-------0------------------------|
|--2----2---------------------------------2-------2----0------------------|
|--2----0---------------------------------3-------2-----------------------|
|-------------------------------------------------------------------------|

Verse 2:
|-----------------------------------------------------|
|--------------------------------3------5-------7-----|
|-2--4--------2---4--2---4----------------------------|
|-2-------------------2-------------------------------|
|-2------2------------3------3-----3------3---------- |
|-----------------------------------------------------|

|------------------------------------------------------------- ---|
|---------------------------------------------3-----5---3---5-----|
|-2--4--------2---4--4-------2------4-----------------------------|
|-2------------------2--------------------------------------   ---|
|-2------2-----------3----3-----3------3-----3--------------  ----|
|-----------------------------------------------------------------|

|------------------------------------------------------- ---|
|--------------------------------3------5-------7-----------|
|-2--4--------2---4--2---4----------------------------------|
|-2-------------------2-------------------------------------|
|-2------2------------3------3-----3------3-----------------|
|-----------------------------------------------------------|

|-2--3-------------------------2----0---------0---------------|
|--------0---------------------3----------3-------------------|
|-------------0-------0---------------------------------------|
|-2----------0---2---0---2---0--------------------------------|
|-------------3-------3--------0---------------------0--------|
|-------------------------------------------------------------|


Chorus: (x2)

|-2--3---------------0-----------------0---2---|
|--------0-------0-----------0---3----0--------|
|-------------0-----------0--------------------|
|-2-----------0----------0------------7--------|
|-------------3-----------3--------------------|
|----------------------------------------------|

|-2h3-------------------2------------------|
|-----------------------3-----5-----3------|
|---------4---0---4---------------------4--|
|-2-----------0---------0------------------|
|-------------3---------0------------------|
|------------------------------------------|

|-2--3---------------0-----------------0---2--- |
|--------0-------0-----------0---3----0------- -|
|-------------0-----------0---------------------|
|-2-----------0-----------0------------7--------|
|-------------3-----------3---------------------|
|-----------------------------------------------|

|--2--0-------------------2---4---2--------------2-------2---4---2---------------|
|----------------5----5-------------5-----3---5-------------------------5--------|
|--0----5---4-----4----------------------0-------0-------------------------------|
|--2----2---------------------------------2-------2----0-------------------------|
|--2----0---------------------------------3-------2------------------------------|
|---------------------------------------------------------------------------- ---|
Tap to rate this tab
 
# A B C D E F G H I J K L M N O P Q R S T U V W X Y Z