Song name
# A B C D E F G H I J K L M N O P Q R S T U V W X Y Z

Three Days Grace - Bitter Taste tab

----------------------------------------------------------------------------
			     BITTER TASTE - THREE DAYS GRACE
----------------------------------------------------------------------------
Tabbed by: Zach101

This is the full song, including the solo. It is in Drop D. 


Tuning: DROP D

Intro (x2)
e|----------------------------------------------|
B|----------------------------------------------|
G|----------------------------------------------|
D|-5-5-5-3-5-6-5-----5-5-5-3-5-6-5-3--1----8----|
A|-5-5-5-3-5-6-5-----5-5-5-3-5-6-5-3--1----8----|
D|-5-5-5-3-5-6-5-----5-5-5-3-5-6-5-3--1----8----|

Verse (x3)
e|----------------------------------------------|
B|----------------------------------------------|
G|----------------------------------------------|
D|------------------------------------1----8----|
A|------------------------------------1----8----|
D|-5-5-5-3-5-6-5-----5-5-5-3-5-6-5-3--1----8----|

Pre-Chorus (x2)
e|----------------------------|
B|-8--6--4--3-1-3-4---6-3-----|
G|----------------------------|
D|----------------------------|
A|----------------------------|
D|----------------------------|

Chorus Part One (x2)
e|---------------------------|
B|---------------------------|
G|---------------------------|
D|-10--8--6--5----6----8-----|
A|-10--8--6--5----6----8-----|
D|-10--8--6--5----6----8-----|

Chorus Part Two 
e|---------------------------------------|
B|---------------------------------------|
G|-13--12--------------------------------|
D|-11--11--15------3---3-3-3--3-3--3-3-3-|
A|-11--11--11------3---3-3-3--3-3--3-3-3-|
D|-11--11--11------3---3-3-3--3-3--3-3-3-|

e|---------------------------------------|
B|---------------------------------------|
G|---------------------------------------|
D|-11--11--15------3---3-3-3--3-3--3-3-3-|
A|-11--11--11------3---3-3-3--3-3--3-3-3-|
D|-11--11--11------3---3-3-3--3-3--3-3-3-|

(Eleven's, not ones)

Intro (x1)
e|----------------------------------------------|
B|----------------------------------------------|
G|----------------------------------------------|
D|-5-5-5-3-5-6-5-----5-5-5-3-5-6-5-3--1----8----|
A|-5-5-5-3-5-6-5-----5-5-5-3-5-6-5-3--1----8----|
D|-5-5-5-3-5-6-5-----5-5-5-3-5-6-5-3--1----8----|

Verse (x3)
e|----------------------------------------------|
B|----------------------------------------------|
G|----------------------------------------------|
D|------------------------------------1----8----|
A|------------------------------------1----8----|
D|-5-5-5-3-5-6-5-----5-5-5-3-5-6-5-3--1----8----|

Pre-Chorus (x2)
e|----------------------------|
B|-8--6--4--3-1-3-4---6-3-----|
G|----------------------------|
D|----------------------------|
A|----------------------------|
D|----------------------------|

Chorus Part One (x2)
e|---------------------------|
B|---------------------------|
G|---------------------------|
D|-10--8--6--5----6----8-----|
A|-10--8--6--5----6----8-----|
D|-10--8--6--5----6----8-----|

Chorus Part Two 
e|---------------------------------------|
B|---------------------------------------|
G|-13--12--------------------------------|
D|-11--11--15------3---3-3-3--3-3--3-3-3-|
A|-11--11--11------3---3-3-3--3-3--3-3-3-|
D|-11--11--11------3---3-3-3--3-3--3-3-3-|

e|---------------------------------------|
B|---------------------------------------|
G|---------------------------------------|
D|-11--11--15------3---3-3-3--3-3--3-3-3-|
A|-11--11--11------3---3-3-3--3-3--3-3-3-|
D|-11--11--11------3---3-3-3--3-3--3-3-3-|


Solo
e|------------------------------------------------------------------------|
B|------------------------------------------------------------------------|
G|-/12~--12-12-12-12-12-12~--------10-12phb-----10------------------------|
D|-----------------------------/12----------/12---12-10----10-------------|
A|------------------------------------------------------12----12-10----10-|
D|------------------------------------------------------------------13----|

e|----------------------------------------------------------------------|
B|----------------------------------------------------------------------|
G|-------------10-12-12p10----10-12-12p10----10-12-12p10----10-12-12p10-|
D|---------/12-------------12-------------12-------------12-------------|
A|----------------------------------------------------------------------|
D|-13-10\---------------------------------------------------------------|

e|------------------------------------------------------------|
B|------------------------------------------------------------|
G|-----10-13-13p10----10-13-13p10----10-13-13p10----10-13-13\-|
D|-/12-------------12-------------12-------------12-----------|
A|------------------------------------------------------------|
D|------------------------------------------------------------|

e|-10h13p10-------------11h15p11-------------13h17p13-------------|
B|----------11-------------------13-------------------15----------|
G|-------------10-------------------12-------------------14-------|
D|----------------11-------------------13-------------------15----|
A|-------------------13-------------------15-------------------17-|
D|----------------------------------------------------------------|

e|----------------------------------------------------|
B|-----18b--18-16-15h16p15h16p15h16p15h16p15h16p15h16-|
G|---x------------------------------------------------|
D|-x--------------------------------------------------|
A|----------------------------------------------------|
D|----------------------------------------------------|

e|-----16-20~----16-20-18--20-----16-20~--18b~-18---------|
B|-/18--------18--------------/18-----------------18b~-16-|
G|--------------------------------------------------------|
D|--------------------------------------------------------|
A|--------------------------------------------------------|
D|--------------------------------------------------------|

e|-----16-20~-----16-20-18-20----|
B|-/18---------18-------------20-|
G|-------------------------------|
D|-------------------------------|
A|-------------------------------|
D|-------------------------------|

Pre-Chorus (x2)
e|----------------------------|
B|-8--6--4--3-1-3-4---6-3-----|
G|----------------------------|
D|----------------------------|
A|----------------------------|
D|----------------------------|

Chorus Part One (x2)
e|---------------------------|
B|---------------------------|
G|---------------------------|
D|-10--8--6--5----6----8-----|
A|-10--8--6--5----6----8-----|
D|-10--8--6--5----6----8-----|

Chorus Part Two 
e|---------------------------------------|
B|---------------------------------------|
G|-13--12--------------------------------|
D|-11--11--15------3---3-3-3--3-3--3-3-3-|
A|-11--11--11------3---3-3-3--3-3--3-3-3-|
D|-11--11--11------3---3-3-3--3-3--3-3-3-|

e|---------------------------------------|
B|---------------------------------------|
G|---------------------------------------|
D|-11--11--15------3---3-3-3--3-3--3-3-3-|
A|-11--11--11------3---3-3-3--3-3--3-3-3-|
D|-11--11--11------3---3-3-3--3-3--3-3-3-|

Outro Rythym Guitar:

#1
e|-----------------------------------------------------------|
B|-----------------------------------------------------------|
G|-----------------------------------------------------------|
D|-10-10-10-8-10-11-10-----10-10-10-8-10-11-10-8--6----13----|
A|-10-10-10-8-10-11-10-----10-10-10-8-10-11-10-8--6----13----|
D|-10-10-10-8-10-11-10-----10-10-10-8-10-11-10-8--6----13----|

#2
e|-----------------------------------------------------------|
B|-----------------------------------------------------------|
G|-----------------------------------------------------------|
D|-10-10-10-8-10-11-10-----10-10-10-8-10-11-10-8--6----13----|
A|-10-10-10-8-10-11-10-----10-10-10-8-10-11-10-8--6----13----|
D|-10-10-10-8-10-11-10-----10-10-10-8-10-11-10-8--6----13----|

#3
e|------------------------------------------------------------|
B|------------------------------------------------------------|
G|------------------------------------------------------------|
D|-10-10-10-8-10-11-10-----10-10-10-8-10-11-10-8--6----13-12\-|
A|-10-10-10-8-10-11-10-----10-10-10-8-10-11-10-8--6----13-12\-|
D|-10-10-10-8-10-11-10-----10-10-10-8-10-11-10-8--6----13-12\-| 

(Song Ends with the 12 power chord)

Outro Lead Guitar (This part starts right when #3 starts)
e|------------------------------------------------------------------------|
B|------------------------------------------------------------------------|
G|-/12~--12-12-12-12-12-12~--------10-12phb-----10------------------------|
D|-----------------------------/12----------/12---12-10----10-------------|
A|------------------------------------------------------12----12-10----10-|
D|------------------------------------------------------------------13----|
************************************

| /   slide up
| \   slide down
| h   hammer-on
| p   pull-off
| ~   vibrato
| +   harmonic
| x   Mute note
| b   Bend
| pb  Pre-bend
| br  Bend release
| pbr Pre-bend release
| brb Bend release bend

************************************
Tap to rate this tab
# A B C D E F G H I J K L M N O P Q R S T U V W X Y Z