Song name
# A B C D E F G H I J K L M N O P Q R S T U V W X Y Z

Three Days Grace - World So Cold tab

Three Days Grace - World So Cold (Played with one guitar live)
Tuning CGDFAD (low to high)

NOTE: This is for playing the song with ONE GUITAR ONLY
Here is the YOUTUBE video that I based the tab from.........

http://www.youtube.com/watch#v=OyzRCxCX9mU&feature=related

INTRO - Part 1 - with Phase Shifter and slight distortion
D|-----------------------------------------------|
A|-----------------------------------------------|
F|---------2-------3---2--------------2-------5--|
C|-------------3--------------------------3------|
G|-----------------------------------------------|
C|-3b--0-0---0---0---0------0-3b--0-0---0---0----|

D|-----------------------------------------------|
A|-----------------------------------------------|
F|-----------2--------3---2------3-----2---------|
C|---------------3--------------------------3----|
G|-----------------------------------------------|
C|-0-3b--0-0---0---0----0---0-1-----1-----1------|

INTRO - Part 2 - Kick on full distortion and kill phase shifter
D|--------------------------------------------------------|
A|--------------------------------------------------------|
F|--------2--------3---2------------2-----------5--5-5/7--|
C|----0---2----3---3---2--------0---2-----3-----5--5-5/7--|
G|----0-0-0--0-3-0-1-0-0-0------0-0-0--0--3--0--3--3-3/5--|
C|-3b-0-0----0-3-0---0---0--3b--0-0----0--3--0------------|

D|---------------------------------------------|
A|---------------------------------------------|
F|---------2---------3---2-------3---2---------|
C|-----0---2-----3---3---2---------------3-----|
G|-----0-0-0--0--3-0-1-0-0---------------------|
C|-3b--0-0----0--3-0---0---(0)-1---1---1-------|

VERSE
Play INTRO Part 1 - 2x

PRECHORUS
D|--------------------------------------------------------------|
A|--10-11-10---10-10-8--8-10--10-10-8--8-10--10-10-8--8-10-10---|
F|--------------------------------------------------------------|
C|--------------------------------------------------------------|
G|--------------------------------------------------------------|
C|--------------------------------------------------------------|

CHORUS
D|--------------------------------------------------------------|
A|--------------------------------------------------------------|
F|--------------------------------------------------------------|
C|-0-0--10--10--10--8------------0-0-10--10--10----8------------|
G|-0-0--10--10--10--8------------0-0-10--10--10----8------------|
C|-0-0--10--10--10--8--5-7-8-10--0-0-10--10--10----8--5-7-8-10--|

D|-------------------------------------------------------------------|
A|-------------------------------------------------------------------|
F|-------------------------------------------------------------------|
C|--0--0-7----10-10-x-5-5-5---8-8-8-8--10101010--8-8-8-8--10101010-0-|
G|--0--0-7----10-10-x-5-5-5---8-8-8-8--10101010--8-8-8-8--10101010-0-|
C|--0--0-7----10-10-x-5-5-5---8-8-8-8--10101010--8-8-8-8--10101010-0-|

VERSE
PRECHORUS

CHORUS
D|--------------------------------------------------------------|
A|--------------------------------------------------------------|
F|--------------------------------------------------------------|
C|-0-0--10--10--10--8------------0-0-10--10--10----8------------|
G|-0-0--10--10--10--8------------0-0-10--10--10----8------------|
C|-0-0--10--10--10--8--5-7-8-10--0-0-10--10--10----8--5-7-8-10--|

D|-----------------------------------------------------------------------|
A|-----------------------------------------------------------------------|
F|-----------------------------------------------------------------------|
C|--0--0-7----10-10-x-5-5-5---8-8-8-8--10101010--8-8-8-8--1010-----------|
G|--0--0-7----10-10-x-5-5-5---8-8-8-8--10101010--8-8-8-8--1010-----------|
C|--0--0-7----10-10-x-5-5-5---8-8-8-8--10101010--8-8-8-8--1010--5-7-8-10-|

BRIDGE
D|----------------------------------------------------------------------|
A|----------------------------------------------------------------------|
F|----------------------------------------------------------------------|
C|-------------------------------------------------------------------10-|
G|-------------------------------------------------------------------10-|
C|5-5-5-5-5-5-8-7-5-3-0-0-0-0-0-0-5-7-8-10-5-5-5-5-5-5-8-7-5-3-0-0-0-10-|

D|----------------------------------------------------------------------|
A|----------------------------------------------------------------------|
F|----------------------------------------------------------------------|
C|--------------------------------------------------8-8----0------10----|
G|--------------------------------------------------8-8-xx-0---xx-10----|
C|5-7-8-10-5-5-5-5-5-5-8-7-5-3-0-0-0-0-0-0-5-7-8-10-8-8-xx-0---xx-10----|

CHORUS
INTRO Part 2 - 2x
Tap to rate this tab
# A B C D E F G H I J K L M N O P Q R S T U V W X Y Z