Song name
# A B C D E F G H I J K L M N O P Q R S T U V W X Y Z

Three Days Grace - Life Starts Now tab

There is already a tab of this song but i find it easier to play like this and 
theres just a few differences :D enjoy.

Intro (play once)
E|-----8-7-----------------10-8-7---------||
B|--10----------13--12---8----------13-12-||
G|--------10----------------------10--10--||
D|-7--7-------10--10----5-5---------------||
A|----------------------------------------||
D|----------------------------------------||

Verse (play four times)
E|------------------------------------||
B|------------------------------------||
G|-------------------------7-5-4--5-4-||
D|--7-10-9-7----10--12---0------------||
A|------------------------------------||
D|-7-7--------10--10----0-0------3-2--||

Chorus (play once - strumming isnt shown)
E|--------------------------------||
B|--------------------------------||
G|--------------------------------||
D|-7-2-3---7-10-0-3--7-5-3--7-8-3-||
A|-7-2-3---7-10-0-3--7-5-3--7-8-3-||
D|-7-2-3---7-10-0-3--7-5-3--7-8-3-||

Verse 2 (same as verse 1 - Play four times)
E|------------------------------------||
B|------------------------------------||
G|-------------------------7-5-4--5-4-||
D|--7-10-9-7----10--12---0------------||
A|------------------------------------||
D|-7-7--------10--10----0-0------3-2--||

Chorus (play once)
E|--------------------------------||
B|--------------------------------||
G|--------------------------------||
D|-7-2-3---7-10-0-3--7-5-3--7-8-3-||
A|-7-2-3---7-10-0-3--7-5-3--7-8-3-||
D|-7-2-3---7-10-0-3--7-5-3--7-8-3-||

Bridge
E|-----------------------------||
B|-----------------------------||
G|-----------------------------||
D|-0-3-10-5-0-3-10-5--0-8-3-10-||
A|-0-3-10-5-0-3-10-5--0-8-3-10-||
D|-0-3-10-5-0-3-10-5--0-8-3-10-||

New Chorus
E|-------------------------------------------------||
B|-------------------------------------------------||
G|-------------------------------------------------||
D|-9-7-5--9-9-0--7-7-5--9-4-5--9-9-0--7-7-5--9-7-5-||
A|-9-7-5--9-9-0--7-7-5--9-4-5--9-9-0--7-7-5--9-7-5-||
D|-9-7-5--9-9-0--7-7-5--9-4-5--9-9-0--7-7-5--9-7-5-||

pretty sure its 100%, but if you find mistakes please tell me :)
oh and please rate and comment :D
Tap to rate this tab
# A B C D E F G H I J K L M N O P Q R S T U V W X Y Z