Song name
# A B C D E F G H I J K L M N O P Q R S T U V W X Y Z

Three Days Grace - Last To Know tab

Three Days Grace
"last to know"
Life Starts Now


  This is not a tab for the piano, this is for the the guitar that plays in the 
Both guitars ARE IN DROP D!


The first guitar riff is in the 1st chorus. It's an acoustic guitar.
These are the chords, you can hear the stumming.

e|---------------------------------------------------------------------|
B|---------------------------------------------------------------------|
G|---------------------------------------------------------------------|
D|-----4---5-------5----7--------4---5----7--------5----7--------------|
A|-2---2---3---2---3----5----2---2---3----5---2----3----5--------------|
D|-2-----------2-------------2----------------2------------------------|

The next chorus has the same acoustic riff, but Barry plays a electric riff. If you 
carefully you can hear it clearly.

\2= slide down to the 2nd fret.

e|-------------------------------------------------------------------------|
B|-------------------------------------------------------------------------|
G|-------------------------------------------------------------------------|
D|-------------------------------------------------------------------------|
A|-\2--3---5--3-2----3---5---7--5-3----2--3---5--3-2----5----3--5--3--5-3-2|
D|-----------------2-----------------2---------------------2---------------|

electric guitar

e|--13--13--13--13---------13----13----13----12-13-12~--------|
B|--0---0---0---0----------0----------------------------------|
G|--------------------14--------------------------------------|
D|------------------------------------------------------------|
A|------------------------------------------------------------|
D|------------------------------------------------------------|


After the short intermision both guitars go electric Adam plays the rythym
and Barry plays the little solo riff, here's both.

Rythym:

e|--------------------------------------------------------------|
B|--------------------------------------------------------------|
G|--------------------------------------------------------------|
D|--0--2---5---7--0--2---5---7---2--4--5--7--2---5--7--2--4--5--|
A|--0--2---3---5--0--2---3---5---2--2--3--5--2---3--5--2--2--3--|
D|--0--2----------0--2-----------2-----------2---------2--------|

e|----------------------------------|
B|----------------------------------|    these are the chords listen to the
G|----------------------------------|    strumming to know when to hit them
D|--7---2---5---7---2---4---5----7/-|    and the strumming pattern
A|--5---2---3---5---2---2---3----5/-|
D|------2-----------2---------------|


heres the solo thing that plays with the rythym guitar.


e|--------14------------------14-----------------14-----------14-15-14-12-|
B|--12-------15---12-----12------15---17---12-------15---12---------------|
G|------------------------------------------------------------------------|
D|------------------------------------------------------------------------|
A|------------------------------------------------------------------------|
D|------------------------------------------------------------------------|


e|--------14---------------14-------------14------14-----|
B|--12-------15------12-------15---17--------15~-----15~-|
G|-------------------------------------------------------| After you play
D|-------------------------------------------------------| this start from
A|-------------------------------------------------------| the beggining and
D|-------------------------------------------------------| end on :

e|--------------------------------|
B|---17/--------------------------|      Slide up the neck twords the 1st
                                          fret.


Thats it, it's an easy song once you learn the rythym and get used to playing it.
Tap to rate this tab
 
# A B C D E F G H I J K L M N O P Q R S T U V W X Y Z