Song name
# A B C D E F G H I J K L M N O P Q R S T U V W X Y Z

Three Days Grace - Wake Up Acoustic tab

Artist: Three Days Grace
Song  : Wake Up (Acoustic)

I love TDG and love playing their songs acoustic. I saw that there wasn't a
good acoustic tab for this song so I thought I would tab one out. I figured
out the tab by watching a youtube video of them performing live acoustic. 
TDG used 2 different guitar parts in this acoustic performance so I put everything 
into 1 guitar part.
It has the sound of what both guitars play but it can be performed solo. I know it 
is 100% accurate.
Here is the video so you can watch:http://www.youtube.com/watch?v=M3NtwNcwOOA
Please rate/ comment!

TUNING: Drop D-half step down Db/Ab/Db/Gb/Bb/Eb same as C#/G#/C#/F#/G#/Eb

INTRO:
E|-----------------------------------------------------------------|
B|-----------------------------------------------------------------|
G|-----------0-------------0-----------------0---------------------|
D|-------4-----4---4-----4-----4---------7-----7---7---7---5---4---| x1
A|-----2---2-----2-----0-----0---0-----5---5-----5-----------------|
D|-0-2---------------0-------------0-5---------------0---0---0-----|

VERSE:
E|-----------------------------------------------------------------|
B|-----------------------------------------------------------------|
G|-----------0-------------0-----------------0---------------------|
D|-------4-----4---4-----4-----4---------7-----7---7---7---5---4---| x5
A|-----2---2-----2-----0-----0---0-----5---5-----5-----------------|
D|-0-2---------------0-------------0-5---------------0---0---0-----|

PRE-CHORUS:
E|--------------------------------------------------------------------------|
B|--------------------------------------------------------------------------|
G|-9----11---12----14-----9----11---12----11---12----14----11---12----14----|
D|-7-x4-9-x4-10-x4-12-x4--7-x4-9-x4-10-x4-9-x2-10-x1-12-x1-9-x2-10-x1-12-x1-|
A|-7----9----10----12-----7----9----10----9----10----12----9----10----12----|
D|-7----9----10----12-----7----9----10----9----10----12----9----10----12----|

CHORUS:
E|------------------------------------------------------|
B|------------------------------------------------------|
G|------------------------------------------------------|
D|-0-2-2-0-2-----2-0-0-0-0--5-5-5-5-5-----5-11-11-12-14-| cont'd
A|-0-2-2-0-2-----2-0-0-0-0--5-5-5-5-5-----5-0--0--0--0--| below
D|-0-2-2-0-2-----2-0-0-0-0--5-5-5-5-5-----5-0--0--0--0--|
                                                       \
E|-------------------------------------------|          \
B|-------------------------------------------|           \ Play entire
G|---------------11---12----11---12----14----|           / CHORUS x2
D|-0-2-2-0-2-----9-x4-10-x4-9-x2-10-x1-12-x1-|          /
A|-0-2-2-0-2-----9----10----9----10----12----|         /
D|-0-2-2-0-2-----9----10----9----10----12----|

PLAY THE VERSE x3

PLAY PRE-CHORUS x1

PLAY CHORUS X2

BRIDGE
E|----------------------------------------------------------|
B|----------------------------------------------------------|
G|-9----11---12----14----9----11----12----11----12----14----|
D|-7-x4-9-x4-10-x4-12-x4-7-x4--9-x4-10-x4--9-x2-10-x1-12-x1-| x2
A|-7----9----10----12----7-----9----10-----9----10----12----|
D|-7----9----10----12----7-----9----10-----9----10----12----|
                                            \         /
                                          2nd time through
                                          play this part x4

FINAL CHORUS
E|------------------------------------------------------|
B|------------------------------------------------------|
G|------------------------------------------------------|
D|-0-2-2-0-2-----2-0-0-0-0--5-5-5-5-5-----5-11-11-12-14-| Play x1 then
A|-0-2-2-0-2-----2-0-0-0-0--5-5-5-5-5-----5-0--0--0--0--| cont'd below 
D|-0-2-2-0-2-----2-0-0-0-0--5-5-5-5-5-----5-0--0--0--0--|

E|------------------------------------------------------|
B|------------------------------------------------------|
G|------------------------------------------------------|
D|-0-2-2-0-2-----2-0-0-0-0--5-5-5-5-5-----5-11-11-12-14-| cont'd
A|-0-2-2-0-2-----2-0-0-0-0--5-5-5-5-5-----5-0--0--0--0--| below
D|-0-2-2-0-2-----2-0-0-0-0--5-5-5-5-5-----5-0--0--0--0--|
                                                        \
E|-------------------------------------------|           \
B|-------------------------------------------|            \ Play entire
G|---------------11---12----11---12----14----|            / CHORUS x2
D|-0-2-2-0-2-----9-x4-10-x4-9-x2-10-x1-12-x1-|           /
A|-0-2-2-0-2-----9----10----9----10----12----|          /
D|-0-2-2-0-2-----9----10----9----10----12----|

Enjoy! Please Rate/ Comment!
Tap to rate this tab
# A B C D E F G H I J K L M N O P Q R S T U V W X Y Z