Song name
# A B C D E F G H I J K L M N O P Q R S T U V W X Y Z

Three Days Grace - Gone Forever tab

^ =Let ring

h =Hammer on

p =Pull off

x16 =Play that note or section that many times

x
x = Mute
x

s =Slide

Intro
--------------------------------|
--------------------------------|
-4-4-4-4-4-4-4-4-4-4-4-4-4-4-4--|
-4-4-4-4-4-4-4-4-4-4-4-4-4-4-4--|
-2-2-2-2-2-2-2-2-2-2-2-2-2-2-2--|
--------------------------------|

Verse 1

Guitar 1
------------------------------------------------------------------|
------------------------------------------------------------------|
-4-4-4-4-4-4-4-44-2-2-2-2-2-2-2^------------------7-7-7-7-7-77----|
-4-4-4-4-4-4-4-44-2-2-2-2-2-2-0^-5-5-5-5-5-5-5-55-7-7-7-7-7-77-6^-|
-2-2-2-2-2-2-2-22-0-0-0-0-0-0----5-5-5-5-5-5-5-55-5-5-5-5-5-55-4^-|
---------------------------------3-3-3-3-3-3-3-33-5-5-5-5-5-55----|

------------------------------------------------------------------|
------------------------------------------------------------------|
-4-4-4-4-4-4-4-44-2-2-2-2-2-2-2^------------------7-7-7-7---------|
-4-4-4-4-4-4-4-44-2-2-2-2-2-2-0^-5-5-5-5-5-5-5-55-7-7-7-7-7-7-7-7-|
-2-2-2-2-2-2-2-22-0-0-0-0-0-0----5-5-5-5-5-5-5-55-5-5-5-5-7-7-7-7-|
---------------------------------3-3-3-3-3-3-3-33-5-5-5-5-5-5-5-5-|

---------------------|
---------------------|
-----------------7^--|
-2-2-2-2-4-4-4-4-7^--|
-2-2-2-2-4-4-4-4-5^--|
-0-0-0-0-2-2-2-2-----|

Guitar 2
-----------------2^--|
-0^------3^--p2------|
---------------------|
---------------------|
---------------------|
---------------------|

Chorus 1

Guitar 1
------------------------------------------------------------------|
------------------------------------------------------------------|
---------------7-7-7-7-----------------------7-7-7----------------|
-4-4----5-5----7-7-7-7-7-7-7-7-4-4----5-5----7-7-7-7^-7-7-7-------|
-4-4----5-5----5-5-5-5-7-7-7-7-4-4----5-5----5-5-5-7^-7-7-7-------|
-2-2----3-3----5-5-5-5-5-5-5-5-2-2----3-3----5-5-5-5^-5-5-5-------|

Guitar 1
--------------------------------|
--------------------------------|
----------------7-7-7-7---------|
4-4-4-4-5-5-5-5-7-7-7-7-7-7-7-7-|
4-4-4-4-5-5-5-5-5-5-5-5-7-7-7-7-|
2-2-2-2-3-3-3-3-5-5-5-5-5-5-5-5-|

Guitar 2
7h10-10p9-9h10-10p7--|
---------------------|
---------------------|
---------------------|
---------------------|
---------------------|  x4

Guitar 1
-------------------------------------------------------|
-------------------------------------------------------|
-------------------------------------------------------|
-5-5-5-5-5-5-5-5-4^-5^-7^-9-9-9-9-9-9-9-9-9-9-9--------|
-5-5-5-5-5-5-5-5-4^-5^-7^-9-9-9-9-9-9-9-9-9-9-9--------|
-3-3-3-3-3-3-3-3-2^-3^-5^-7-7-7-7-7-7-7-7-7-7-7--------|

Guitar 2
-10 x16----------9^10^12^-7^------7-7-7-7-7-7-14^-19----|
--------------------------------------------------------|
--------------------------------------------------------|
--------------------------------------------------------|
--------------------------------------------------------|
--------------------------------------------------------|

Verse 2

Guitar 1
-------------------------------------------------------------------|
-------------------------------------------------------------------|
-4-4-4-4-4-4-4-44-2-2-2-2-2-2-2^------------------7-7-7-7-7-77-----|
-4-4-4-4-4-4-4-44-2-2-2-2-2-2-0^-5-5-5-5-5-5-5-55-7-7-7-7-7-77-6^--|
-2-2-2-2-2-2-2-22-0-0-0-0-0-0----5-5-5-5-5-5-5-55-5-5-5-5-5-55-4^--|
---------------------------------3-3-3-3-3-3-3-33-5-5-5-5-5-55-----|

Guitar 2
---------------10^14^---------10^------------------------------14^-|
---------------------------------8^--------------------------------|
-------------------------------------------------------------------|
-------------------------------------------------------------------|
-------------------------------------------------------------------|
-------------------------------------------------------------------|

Guitar 1
-------------------------------------------------------------------|
-------------------------------------------------------------------|
-4-4-4-4-4-4-4-44-2-2-2-2-2-2-2^------------------7-7-7-7----------|
-4-4-4-4-4-4-4-44-2-2-2-2-2-2-0^-5-5-5-5-5-5-5-55-7-7-7-7-7-7-7-7--|
-2-2-2-2-2-2-2-22-0-0-0-0-0-0----5-5-5-5-5-5-5-55-5-5-5-5-7-7-7-7--|
---------------------------------3-3-3-3-3-3-3-33-5-5-5-5-5-5-5-5--|

Guitar 2
-7^------------10^14^---------10^------------------14-10-----------|
---------------------------------8^--------------------------------|
-------------------------------------------------------------------|
-------------------------------------------------------------------|
-------------------------------------------------------------------|
-------------------------------------------------------------------|

Guitar 1
---------------------|
---------------------|
-----------------7^--|
-2-2-2-2-4-4-4-4-7^--|
-2-2-2-2-4-4-4-4-5^--|
-0-0-0-0-2-2-2-2-----|

Guitar 2
-7^------10^--p9-14^-|
---------------------|
---------------------|
---------------------|
---------------------|
---------------------|

Chorus 2

Guitar 1
------------------------------------------------------------------|
------------------------------------------------------------------|
---------------7-7-7-7-----------------------7-7-7----------------|
-4-4----5-5----7-7-7-7-7-7-7-7-4-4----5-5----7-7-7-7^-7-7-7-------|
-4-4----5-5----5-5-5-5-7-7-7-7-4-4----5-5----5-5-5-7^-7-7-7-------|
-2-2----3-3----5-5-5-5-5-5-5-5-2-2----3-3----5-5-5-5^-5-5-5-------|

Guitar 1
--------------------------------|
--------------------------------|
----------------7-7-7-7---------|
4-4-4-4-5-5-5-5-7-7-7-7-7-7-7-7-|
4-4-4-4-5-5-5-5-5-5-5-5-7-7-7-7-|
2-2-2-2-3-3-3-3-5-5-5-5-5-5-5-5-|

Guitar 2
7h10-10p9-9h10-10p7--|
---------------------|
---------------------|
---------------------|
---------------------|
---------------------|  x4

Guitar 1
-----------------------------------------------------------------------|
-----------------------------------------------------------------------|
-----------------------------------------------------------------------|
-5-5-5-5-5-5-5-5-4^-5^-7-0---------------------------------------------|
-5-5-5-5-5-5-5-5-4^-5^-7---4-2-0---------------------------------------|
-3-3-3-3-3-3-3-3-2^-3^-5-----------------------------------------------|

Guitar 2
-10 x16----------9^10^12^---------|
----------------------------------|
----------------------------------|
----------------------------------|
----------------------------------|
----------------------------------|

Bridge

Guitar 1
--------------------------------------------------------------------------|
--------------------------------------------------------------------------|
-----------------4-4-4-4-4-4-------------------------4-4-4-4-2-2----------|
-2-2-2-2-2-2-2-2-4-4-4-4-4-4-0-------2-2-2-2-2-2-2-2-4-4-4-4-2-2-0--------|
-2-2-2-2-2-2-2-2-2-2-2-2-2-2---4-2-0-2-2-2-2-2-2-2-2-2-2-2-2-0-0---4-2-0--|
-0-0-0-0-0-0-0-0---------------------0-0-0-0-0-0-0-0----------------------|

-----------------------------------------------------------------|
-----------------------------------------------------------------|
-----------------4-4-4-4-4-4-4-4---------------------------------|
-2-2-2-2-2-2-2-2-4-4-4-4-4-4-4-4-5-5-5-5-5-5-5-5-4-4-4-5-5-5-7^--|
-2-2-2-2-2-2-2-2-2-2-2-2-2-2-2-2-5-5-5-5-5-5-5-5-4-4-4-5-5-5-7^--|
-0-0-0-0-0-0-0-0-----------------3-3-3-3-3-3-3-3-2-2-2-3-3-3-5^--|

------------------------------------------|
------------------------------------------|
------------------------------------------|
-7^---------------------------------------|
-7^---------------------------------------|
-9^---------------------------------------|

Guitar 2
-----------------------------------------------------------|
-----------------------------------------------------------|
-----7--------------7-------------------------7^-7---------|
-------9-----9----7---7---7-7-5-5-5-5-5-5-5-5-7^-7-x-x-7^--|
---9-------9------------5---5-5-5-5-5-5-5-5-5-5^-5-x-x-7^--|
-7-------7------5-----------5-3-3-3-3-3-3-3-3-5^-5-x-x-5^--|

Chorus 3

Guitar 1
------------------------------------------------------------------|
------------------------------------------------------------------|
---------------7-7-7-7-----------------------7-7-7----------------|
-4-4----5-5----7-7-7-7-7-7-7-7-4-4----5-5----7-7-7-7^-7-7-7-------|
-4-4----5-5----5-5-5-5-7-7-7-7-4-4----5-5----5-5-5-7^-7-7-7-------|
-2-2----3-3----5-5-5-5-5-5-5-5-2-2----3-3----5-5-5-5^-5-5-5-------|

Guitar 1
--------------------------------|
--------------------------------|
----------------7-7-7-7---------|
4-4-4-4-5-5-5-5-7-7-7-7-7-7-7-7-|
4-4-4-4-5-5-5-5-5-5-5-5-7-7-7-7-|
2-2-2-2-3-3-3-3-5-5-5-5-5-5-5-5-|

Guitar 2
7h10-10p9-9h10-10p7--|
---------------------|
---------------------|
---------------------|
---------------------|
---------------------|  x4

Guitar 1
--------------------------------------------------------|
--------------------------------------------------------|
--------------------------------------------------------|
-5-5-5-5-5-5-5-5-4^-5^-7^-5^-4^-5^-7^-5^-4^-5^-7^-------|
-5-5-5-5-5-5-5-5-4^-5^-7^-5^-4^-5^-7^-5^-4^-5^-7^-------|
-3-3-3-3-3-3-3-3-2^-3^-5^-3^-2^-3^-5^-3^-2^-3^-5^-------|

Guitar 2
-10 x16----------9^10^12^10^-9^10^12^10^-9^10^12^-|
--------------------------------------------------|
--------------------------------------------------|
--------------------------------------------------|
--------------------------------------------------|
--------------------------------------------------|

Outro

Guitar 1
---------------------------------------|
---------------------------------------|
---------------------------------------|
-9^------------------------------------|
-9^------------------------------------|
-7^------------------------------------|

Guitar 2
---------------------------------------------------------------------|
--------------------------------------3--------------3---------------|
-----7-------7--------7-----------------4----------------------------|
-------9---7---9--------7-----4-5---------4s5------4---4-------7-9^--|
---9-----5---------5--------7-------5----------------------5-----9^--|
-7---------------5--------5-------3-----------3^-2-------3---5---7^--|
Tap to rate this tab
 
# A B C D E F G H I J K L M N O P Q R S T U V W X Y Z