Song name
# A B C D E F G H I J K L M N O P Q R S T U V W X Y Z

Three Days Grace - The Good Life tab

Artist: Three Days Grace

Song: The Good Life

Album: Life Starts Now

Tuning: Drop D (D A D G B e)

Key: v - vibrato
     * - pinch harmonic
     / - slide down
     \ - slide up
     PM . - palm muted the dotted note


Intro

Guitar 1

E|-------------------------------------------------------------------|
B|-------------------------------------------------------------------|
G|-------------------------------------------------------------------|
D|--0--0-7-8--0-5-6--0-1--0--0-7-8--0-5-6--0-1--0--0-7-8--0-5-6--0-1-|
A|-------------------------------------------------------------------|
D|-------------------------------------------------------------------|

E|-----------------------|
B|-----------------------|
G|-----------------------|
D|--0--0-6-5-0-6-5-0-3---|
A|-----------------------|
D|-----------------------|

Guitar 2

E|-------------------------------------------------------------------|
B|-------------------------------------------------------------------|
G|-------------------------------------------------------------------|
D|-------------------------------------------------------------------|
A|-------------------------------------------------------------------|
D|--0--0-7-8--0-5-6--0-1--0--0-7-8--0-5-6--0-1--0--0-7-8--0-5-6--0-1-|

E|-----------------------|
B|-----------------------|
G|-----------------------|
D|-----------------------|
A|-----------------------|
D|--0--0-6-5-0-6-5-0-3---|

Intro Continued

E|---------------------------------------------------------------------------------------------|
B|---------------------------------------------------------------------------------------------|
G|---------------------------------------------------------------------------------------------|
D|--0------------------1---0------------------1---0------------------1---0---------------------|
A|--0------------------1---0------------------1---0------------------1---0---------------------|
D|--0--0-7-8--0-5-6--0-1---0--0-7-8--0-5-6--0-1---0--0-7-8--0-5-6--0-1---0--0-6-5-0-6-5-0-3v---|

E|---------------------------------------------------------------------------------------------|
B|---------------------------------------------------------------------------------------------|
G|---------------------------------------------------------------------------------------------|
D|--0------------------1---0------------------1---0------------------1---0---------------------|
A|--0------------------1---0------------------1---0------------------1---0---------------------|
D|--0--0-7-8--0-5-6--0-1---0--0-7-8--0-5-6--0-1---0--0-7-8--0-5-6--0-1---0--0-6-5-0-6-5-0-3v---|


Verse


E|-----------------------------------------------------------------------------------------|
B|-----------------------------------------------------------------------------------------|
G|-----------------------------------------------------------------------------------------|
D|---------------------1---------------------1---------------------1-----------------------|
A|--0------------------1--0------------------1--0------------------1--0--------------------|
D|--0--0-7-8--0-5-6--0-1--0--0-7-8--0-5-6--0-1--0--0-7-8--0-5-6--0-1--0--0-6-5-0-6-5-0-3v--|
PM  .  . . .  . . .  .    .  . . .  . . .  .    .  . . .  . . .  .    .  . . . . . . .


E|------------------------------------------------------------------|
B|------------------------------------------------------------------|
G|------------------------------------------------------------------|
D|---------------------1---------------------1---8-8-8-8-8-7//////--|
A|--0------------------1--0------------------1---8-8-8-8-8-7//////--|
D|--0--0-7-8--0-5-6--0-1--0--0-7-8--0-5-6--0-1---8-8-8-8-8-7//////--|
PM  .  . . .  . . .  .    .  . . .  . . .  .

Chorus 1

E|--------------------------------------------------------------------------------|
B|--------------------------------------------------------------------------------|
G|-----------------------------------------------------10-10-10-10-10-10-9--9-----|
D|--0-0-0-3-3\5-5-5\8-8-8---0-0-0-3-3\5-5-5\10-10-10---8--8--8--8--7--7--7--7-----|
A|--0-0-0-3-3\5-5-5\8-8-8---0-0-0-3-3\5-5-5\10-10-10---8--8--8--8--7--7--7--7-----|
D|--0-0-0-3-3\5-5-5\8-8-8---0-0-0-3-3\5-5-5\10-10-10---8--8--8--8--7--7--7--7-----|

E|-------------------------------------------------------------------------------------|
B|-------------------------------------------------------------------------------------|
G|-----------------------------------------------------10-10-10-10-10------------------|
D|--0-0-0-3-3\5-5-5\8-8-8---0-0-0-3-3\5-5-5\10-10-10---8--8--8--8--7-------------------|
A|--0-0-0-3-3\5-5-5\8-8-8---0-0-0-3-3\5-5-5\10-10-10---8--8--8--8--7-------------------|
D|--0-0-0-3-3\5-5-5\8-8-8---0-0-0-3-3\5-5-5\10-10-10---8--8--8--8--7---6-5-0-6-5-0-3*--|
PM                                                                     . . . . . .

E|---------------------------------------------------------------------------------------------|
B|---------------------------------------------------------------------------------------------|
G|---------------------------------------------------------------------------------------------|
D|--0------------------1---0------------------1---0------------------1---0---------------------|
A|--0------------------1---0------------------1---0------------------1---0---------------------|
D|--0--0-7-8--0-5-6--0-1---0--0-7-8--0-5-6--0-1---0--0-7-8--0-5-6--0-1---0--0-6-5-0-6-5-0-3v---|

Verse

E|-----------------------------------------------------------------------------------------|
B|-----------------------------------------------------------------------------------------|
G|-----------------------------------------------------------------------------------------|
D|---------------------1---------------------1---------------------1-----------------------|
A|--0------------------1--0------------------1--0------------------1--0--------------------|
D|--0--0-7-8--0-5-6--0-1--0--0-7-8--0-5-6--0-1--0--0-7-8--0-5-6--0-1--0--0-6-5-0-6-5-0-3v--|
PM  .  . . .  . . .  .    .  . . .  . . .  .    .  . . .  . . .  .    .  . . . . . . .


E|------------------------------------------------------------------|
B|------------------------------------------------------------------|
G|------------------------------------------------------------------|
D|---------------------1---------------------1---8-8-8-8-8-7//////--|
A|--0------------------1--0------------------1---8-8-8-8-8-7//////--|
D|--0--0-7-8--0-5-6--0-1--0--0-7-8--0-5-6--0-1---8-8-8-8-8-7//////--|
PM  .  . . .  . . .  .    .  . . .  . . .  .

Chorus 2

E|------------------------------------------------------------------------------|
B|------------------------------------------------------------------------------|
G|-----------------------------------------------------10-10-10-10-10-10-9--9---|
D|--0-0-0-3-3\5-5-5\8-8-8---0-0-0-3-3\5-5-5\10-10-10---8--8--8--8--7--7--7--7---|
A|--0-0-0-3-3\5-5-5\8-8-8---0-0-0-3-3\5-5-5\10-10-10---8--8--8--8--7--7--7--7---|
D|--0-0-0-3-3\5-5-5\8-8-8---0-0-0-3-3\5-5-5\10-10-10---8--8--8--8--7--7--7--7---|

E|----------------------------------------------------------------------------|
B|----------------------------------------------------------------------------|
G|-----------------------------------------------------10-10-10-10-10-10-10---|
D|--0-0-0-3-3\5-5-5\8-8-8---0-0-0-3-3\5-5-5\10-10-10---8--8--8--8--7--7--7----|
A|--0-0-0-3-3\5-5-5\8-8-8---0-0-0-3-3\5-5-5\10-10-10---8--8--8--8--7--7--7----|
D|--0-0-0-3-3\5-5-5\8-8-8---0-0-0-3-3\5-5-5\10-10-10---8--8--8--8--7--7--7----|

Bridge

E|-------------------------------------------------------------|
B|-------------------------------------------------------------|
G|-------------------------------------------------------------|
D|--------------------------------10-10-10-10-8-8--------------|
A|--------------------------------10-10-10-10-8-8--------------|
D|--0--7--3--2-3--0--7--3-2-0-2-3-10-10-10-10-8-8--3-2-0-2-3---|

E|-------------------------------------------------------------|
B|-------------------------------------------------------------|
G|-------------------------------------------------------------|
D|--------------------------------10-10-10-10-8-8--------------|
A|--------------------------------10-10-10-10-8-8--------------|
D|--0--7--3--2-3--0--8--3-2-0-2-3-10-10-10-10-8-8--3-2-0-2-3---|

E|-----------------------------------------------------------------------------------------------|
B|-----------------------------------------------------------------------------------------------|
G|-----------------------------------------------------------------------------------------------|
D|---------------8-8-8-8-8-8-8-8-7-7-7-7-7-7-7-7----5-5-5-8-8-8-0-0-0-0-0-0-8-8-8-8-8-8-7777777--|
A|---------------8-8-8-8-8-8-8-8-7-7-7-7-7-7-7-7----5-5-5-8-8-8-0-0-0-0-0-0-8-8-8-8-8-8-7777777--|
D|--0--7--3--2-3-8-8-8-8-8-8-8-8-7-7-7-7-7-7-7-7----5-5-5-8-8-8-0-0-0-0-0-0-8-8-8-8-8-8-7777777--|


Chorus 3

E|------------------------------------------------------------------------------|
B|------------------------------------------------------------------------------|
G|-----------------------------------------------------10-10-10-10-10-10-9--9---|
D|--0-0-0-3-3\5-5-5\8-8-8---0-0-0-3-3\5-5-5\10-10-10---8--8--8--8--7--7--7--7---|
A|--0-0-0-3-3\5-5-5\8-8-8---0-0-0-3-3\5-5-5\10-10-10---8--8--8--8--7--7--7--7---|
D|--0-0-0-3-3\5-5-5\8-8-8---0-0-0-3-3\5-5-5\10-10-10---8--8--8--8--7--7--7--7---|

E|--------------------------------------------------------------------------|
B|--------------------------------------------------------------------------|
G|-----------------------------------------------------10-10-10-10-10////---|
D|--0-0-0-3-3\5-5-5\8-8-8---0-0-0-3-3\5-5-5\10-10-10---8--8--8--8--7-////---|
A|--0-0-0-3-3\5-5-5\8-8-8---0-0-0-3-3\5-5-5\10-10-10---8--8--8--8--7-////---|
D|--0-0-0-3-3\5-5-5\8-8-8---0-0-0-3-3\5-5-5\10-10-10---8--8--8--8--7-////---|

Outro

E|--------------------------------------------------------------------------------------------|
B|--------------------------------------------------------------------------------------------|
G|--------------------------------------------------------------------------------------------|
D|--0------------------1---0------------------1---0------------------1---0--------------------|
A|--0------------------1---0------------------1---0------------------1---0--------------------|
D|--0--0-7-8--0-5-6--0-1---0--0-7-8--0-5-6--0-1---0--0-7-8--0-5-6--0-1---0--0-6-5-0-6-5-0-3*--|

End On This

E|-------------|
B|-------------|
G|-------------|
D|--12-12////--|
A|--12-12////--|
D|--12-12////--|
Tap to rate this tab
 
# A B C D E F G H I J K L M N O P Q R S T U V W X Y Z