Three Days Grace - The Good Life tab

This tab should be correct. Enjoy, and feel free to message me.   

     Key________
h  = Hammer On
p  = Pull Off
b  = Bend
PM = Palm Mute
O  = Open
/  = Slide Up
\  = Slide Down
~  = Let Ring
*  = Pinch Harmonic
v  = Vibrato
#  = Rake#


Intro:

e|----------------------------------------------|
B|----------------------------------------------|
G|----------------------------------------------|
D|-0-07805601-0-07805601-0-07805601-0-06506503--|
A|----------------------------------------------|
D|----------------------------------------------|
  O

e|-----------------------------------------------|
B|-----------------------------------------------|
G|-----------------------------------------------|
D|-0-07805601-0-07805601-0-07805601-0-06506503v--|
A|-0-07805601-0-07805601-0-07805601-0-06506503v--|
D|-0-07805601-0-07805601-0-07805601-0-06506503v--| x2
  O


Verse 1:

e|-----------------------------------------------|
B|-----------------------------------------------|
G|-----------------------------------------------|
D|-----------------------------------------------|
A|-0-07805605-0-07805601-0-07805601-0-06506503v--|
D|-0-07805605-0-07805601-0-07805601-0-06506503v--|
  PM        O PM       O PM       O PM       O

e|----------------------------------|
B|----------------------------------|
G|----------------------------------|
D|-----------------------8-8-8-887--|
A|-0-07805601-0-07805601-8-8-8-887--|
D|-0-07805601-0-07805601-8-8-8-887--|
  PM        O PM       O         


Chorus:

e|----------------------------------------------|
B|----------------------------------------------|
G|----------------------------------------------|
D|-0-0-0-33-55-5-5-88-80-0-0-33-55-5-5-1010-10--|
A|-0-0-0-33-55-5-5-88-80-0-0-33-55-5-5-1010-10--|
D|-0-0-0-33-55-5-5-88-80-0-0-33-55-5-5-1010-10--|
  O
                                         
e|------------------|
B|------------------|
G|------------------|
D|-8-8-8-887-7-7-7--|
A|-8-8-8-887-7-7-7--|
D|-8-8-8-887-7-7-7--|
  O

e|----------------------------------------------|
B|----------------------------------------------|
G|----------------------------------------------|
D|-0-0-0-33-55-5-5-88-80-0-0-33-55-5-5-1010-10--|
A|-0-0-0-33-55-5-5-88-80-0-0-33-55-5-5-1010-10--|
D|-0-0-0-33-55-5-5-88-80-0-0-33-55-5-5-1010-10--|
  O 
                                        
e|-----------------------|
B|-----------------------|
G|-----------------------|
C|-8-8-8-8---------------|
A|-8-8-8-8---------------|
D|-8-8-8-8-760760760-3*--|
  O

Verse 2:

e|-----------------------------------------------|
B|-----------------------------------------------|
G|-----------------------------------------------|
D|-0-07805601-0-07805601-0-07805601-0-06506503v--|
A|-0-07805601-0-07805601-0-07805601-0-06506503v--|
D|-0-07805601-0-07805601-0-07805601-0-06506503v--| 
  O

e|-----------------------------------------------|
B|-----------------------------------------------|
G|-----------------------------------------------|
D|-----------------------------------------------|
A|-0-07805605-0-07805601-0-07805601-0-06506503v--|
D|-0-07805605-0-07805601-0-07805601-0-06506503v--|
  PM        O PM       O PM       O PM       O

e|----------------------------------|
B|----------------------------------|
G|----------------------------------|
D|-----------------------8-8-8-887--|
A|-0-07805601-0-07805601-8-8-8-887--|
D|-0-07805601-0-07805601-8-8-8-887--|
  PM        O PM       O   


Chorus:

e|----------------------------------------------|
B|----------------------------------------------|
G|----------------------------------------------|
D|-0-0-0-33-55-5-5-88-80-0-0-33-55-5-5-1010-10--|
A|-0-0-0-33-55-5-5-88-80-0-0-33-55-5-5-1010-10--|
D|-0-0-0-33-55-5-5-88-80-0-0-33-55-5-5-1010-10--|
  O
                                         
e|------------------|
B|------------------|
G|------------------|
D|-8-8-8-887-7-7-7--|
A|-8-8-8-887-7-7-7--|
D|-8-8-8-887-7-7-7--|
  O

e|----------------------------------------------|
B|----------------------------------------------|
G|----------------------------------------------|
D|-0-0-0-33-55-5-5-88-80-0-0-33-55-5-5-1010-10--|
A|-0-0-0-33-55-5-5-88-80-0-0-33-55-5-5-1010-10--|
D|-0-0-0-33-55-5-5-88-80-0-0-33-55-5-5-1010-10--|
  O   
                                      
e|---------------|
B|---------------|
G|---------------|
C|-8-8-8-8-8-8~--|
A|-8-8-8-8-8-8~--|
D|-8-8-8-8-8-8~--|
  O
    
 
Bridge:

e|-----------------------------------------------------|
B|-----------------------------------------------------|
G|-----------------------------------------------------|
D|-0-7-3-2h30-7-3p2p0-2h3-10-10-10-10-108-8-3p2p0-2h3--|
A|-0-7-3-2h30-7-3p2p0-2h3-10-10-10-10-108-8-3p2p0-2h3--|
D|-0-7-3-2h30-7-3p2p0-2h3-10-10-10-10-108-8-3p2p0-2h3--| x2
O

e|------------------------------------------|
B|------------------------------------------|
G|------------------------------------------|
D|-0-7-3-2h3-8-8-8-8-8-8-8-8-87-7-7-7-7-7~--|
A|-0-7-3-2h3-8-8-8-8-8-8-8-8-87-7-7-7-7-7~--|
D|-0-7-3-2h3-8-8-8-8-8-8-8-8-87-7-7-7-7-7~--|
  O

e|-----------------------------------|
B|-----------------------------------|
G|-----------------------------------|
D|-5-558-880-0-0-00-0-8-8-8-8-7-7-7--|
A|-5-558-880-0-0-00-0-8-8-8-8-7-7-7--|
D|-5-558-880-0-0-00-0-8-8-8-8-7-7-7--|
  O


Chorus:

e|----------------------------------------------|
B|----------------------------------------------|
G|----------------------------------------------|
D|-0-0-0-33-55-5-5-88-80-0-0-33-55-5-5-1010-10--|
A|-0-0-0-33-55-5-5-88-80-0-0-33-55-5-5-1010-10--|
D|-0-0-0-33-55-5-5-88-80-0-0-33-55-5-5-1010-10--|
  O
                                         
e|------------------|
B|------------------|
G|------------------|
D|-8-8-8-887-7-7-7--|
A|-8-8-8-887-7-7-7--|
D|-8-8-8-887-7-7-7--|
  O

e|----------------------------------------------|
B|----------------------------------------------|
G|----------------------------------------------|
D|-0-0-0-33-55-5-5-88-80-0-0-33-55-5-5-1010-10--|
A|-0-0-0-33-55-5-5-88-80-0-0-33-55-5-5-1010-10--|
D|-0-0-0-33-55-5-5-88-80-0-0-33-55-5-5-1010-10--|
  O 
                                        
e|------------|
B|------------|
G|------------|
C|-8-8-8-8-#--|
A|-8-8-8-8-#--|
D|-8-8-8-8-#--|
  O
 


Outro:

e|----------------------------------------------------|
B|----------------------------------------------------|
G|----------------------------------------------------|
D|-0-07805601-0-07805601-0-07805601-0-06506503*-------|
A|-0-07805601-0-07805601-0-07805601-0-0650650-12-12\--|
D|-0-07805601-0-07805601-0-07805601-0-0650650-12-12\--| 
  O
Tap to rate this tab
 
# A B C D E F G H I J K L M N O P Q R S T U V W X Y Z