Three Days Grace - The Chain tab

This is the first one. Song is in Drop D. This is my first tab/ song learned by ear, so
please don't get mad if smething is wrong, but it sounds like the song.


Intro(clean):

e|-------0r-----------|
B|--------------------|
G|--------------------|
D|-----------------0r-|   x2
A|-0-3p0-----0-3p0----|
D|-0---------0--------|

Verse(distortion):

e|---------------------------------------------------|
B|---------------------------------------------------|
G|---------------------------------------------------|
D|---------------------------------------------------|  x2
A|--------------------------------3-3-3-3-1-1-1-0----|
D|-0-0-0-0-0-0-0-0-5-5-5-5-5-5-5-5---------------5-7-|
   pm...............................................

End 2nd time with:
e|-----------------------------------------------------|
B|-----------------------------------------------------|
G|-----------------------------------------------------|
D|-----------------------------------------------------|
A|-----------------------------------------------------|
D|-0-0-0-0-0-------------------------------------------|
   pm.....

Chorus:

e|---------------------------------------------|
B|---------------------------------------------|
G|---------------------------------------------|
D|---------------------5-5p3-3-3p1-1-1h2-1h2---|  x2
A|---------------------5-5p3-3-3p1-1-1h2-1h2---|
D|-5-5-5-5-3-5-5-5-5-3-5-5p3-3-3p1-1-1h2-1h2---|


Chorus solo:
e|------------------------------------------------------------|
B|15-15p13-13p11-10h11-10h11-15-15-15-15-13-15-15-15-15-------|  x2
G|------------------------------------------------------------|
D|------------------------------------------------------------|
A|------------------------------------------------------------|
D|------------------------------------------------------------|

End With:
e|---------|
B|---------|
G|---------|
D|-0-------|
A|-0-------|
D|-0-------|

Verse Again
Chorus Again


Break (Bass and Cymbal Only)

When Guitar and Drums kick in:

e|-----------------------------------------------|
B|-----------------------------------------------|
G|-----------------------------------------------|
D|-----------------------------------------------|
A|-----------------------------------------------|
D|0-0-0-0-0-0-0-0-0-0-0-0-0-0-0------------------|
  pm...........................                     Till the end

e|-----------------------------------------------|
B|-----------------------------------------------|
G|-----------------------------------------------|
D|-5-5-5-7h8-8-8-8-8-7p5-5h7-0-0-0-0-0-0-0-0-----|
A|-5-5-5-7h8-8-8-8-8-7p5-5h7-0-0-0-0-0-0-0-0-----|
D|-5-5-5-7h8-8-8-8-8-7p5-5h7-0-0-0-0-0-0-0-0-----|

End Solo

e|-----------------------------------------------|
B|-15~17h18-18-17p15-15h17-----------------------|      Repeat till end
G|-------------------------14~~~~~---------------|
D|-----------------------------------------------|
A|-----------------------------------------------|
D|-----------------------------------------------|

Rythm End:

e|-----------------------------------------------|
B|-----------------------------------------------|
G|-----------------------------------------------|
D|-0---------------------------------------------|
A|-0---------------------------------------------|
D|-0---------------------------------------------|

Well, that's it. If you have any complaints or want me to fix something, email me at
jacobnoel4@yahoo.com. Thank you.
Tap to rate this tab
 
# A B C D E F G H I J K L M N O P Q R S T U V W X Y Z