Three Days Grace - Get Out Alive tab

Get out Alive ĖThree Days Grace tab

Intro/Verse (x5)
E|----------------------------------------------------------------------------------|
B|----------------------------------------------------------------------------------|
G|----------------------------------------------------------------------------------|
D|-------0---------0-----------0-----------0---------0----------0-------------0-----|
A|----------------------------------------------------------------------------------|
D|-0-12----12-13------0-10-------10-12------0-8-------8-10-------0-7---8-7-5--------|

Chorus (x2)
E|----------------------------------------------------------|
B|----------------------------------------------------------|
G|-------0------------0----------------0-------------0---0--|
D|---0-------0----0--------------0---------0----0-----------|
A|----------------------------------------------------------|
D|-5---5--------1---1---------3-----3---------5---5---------|

Repeat Intro/verse and Chorus.

Bridge (x2)
E|------------------------------------------------------------------------|
B|------------------------------------------------------------------------|
G|------------------------------------------------------------------------|
D|1010101010101010---0-0-0-0-0-0-0-0---5-5-5-5-5-5-5-5--0-1-1-1-1-1-1-1-1-|
A|-8-8-8-8-8-8-8-8---0-0-0-0-0-0-0-0---5-5-5-5-5-5-5-5--0-1-1-1-1-1-1-1-1-|
D|-8-8-8-8-8-8-8-8---0-0-0-0-0-0-0-0---5-5-5-5-5-5-5-5--0-1-1-1-1-1-1-1-1-|


Guitar Breakdown
E|---------------------------------------------------------|
B|---------------------------------------------------------|
G|---------------------------------------------------------|
D|-8-7-5-5--0-0--13-13--10-10--0-0--8-8--10-10--7--8-7-----|
A|-8-7-5-5--0-0--13-13--10-10--0-0--8-8--10-10--7--8-7-----|
D|-8-7-5-5--0-0--13-13--10-10--0-0--8-8--10-10--7--8-7-----|
E|---------------------------------------------------------|
B|---------------------------------------------------------|
G|---------------------------------------------------------|
D|-5-5--0-0--13-13--10-10--0-0--8-8--10-10--7--8-7---------|
A|-5-5--0-0--13-13--10-10--0-0--8-8--10-10--7--8-7---------|
D|-5-5--0-0--13-13--10-10--0-0--8-8--10-10--7--8-7---------|


Repeat Chorus followed by the Bridge and finally the Guitar Breakdown finishes the song.




Enjoy the tab. Iíve tried to make this the most accurate tab on the website.
Tap to rate this tab
 
# A B C D E F G H I J K L M N O P Q R S T U V W X Y Z