Song name
# A B C D E F G H I J K L M N O P Q R S T U V W X Y Z

Three Days Grace - Wake Up tab

--------------------------------------------------------------------------
                             WAKE UP - Three Days Grace
--------------------------------------------------------------------------

Tuning: standard

This is my first tab soo if i made any mistakes feel free to correct me :)


INTRO:

e|-----------------------------------------------------------------------|
B|-----------------------------------------------------------------------|
G|---------1---2-p1---1-----1-2---1----------4---2-h4---4---4---2---1----|
D|-----------------------------------------2-----------------------------|
A|-------4----------------2--------------------0------0------------------|
E|--0-h2-----2------2---0-------0-----0-h5----------------0---0---0------|


************************************

| /   slide up
| \   slide down
| h   hammer-on
| p   pull-off
| ~   vibrato
| +   harmonic
| x   Mute note
| b   Bend
| pb  Pre-bend
| br  Bend release
| pbr Pre-bend release
| brb Bend release bend

************************************
Tap to rate this tab
# A B C D E F G H I J K L M N O P Q R S T U V W X Y Z