Song name
# A B C D E F G H I J K L M N O P Q R S T U V W X Y Z

Three Days Grace - The Chain tab

----------------------------------------------------------------------------
                         Three Days Grace - The Chain
----------------------------------------------------------------------------

Song title: The Chain
Tabbed by: Metalrock4ever

Tuning: DADGBE

Intro:
|---------------------|
|-------5b------------|
|---5----------5---7b-|
|-7---7----7-7---7----|   x2
|---------------------|
|---------------------|

Verse (use palm mute for verse):
|---------------------------------------------------------|
|---------------------------------------------------------|
|---------------------------------------------------------|
|-0-0-0-0-0-0-0-0-5-5-5-5-5-5-5-5-10-10-10-10-8-8-8-7-5-7-|
|-0-0-0-0-0-0-0-0-5-5-5-5-5-5-5-5-10-10-10-10-8-8-8-7-5-7-|
|-0-0-0-0-0-0-0-0-5-5-5-5-5-5-5-5-10-10-10-10-8-8-8-7-5-7-|

|-------------------------------------------------------------------|
|-------------------------------------------------------------------|  No
|-------------------------------------------------------------------| mute
|-0-0-0-0-0-0-0-0-5-5-5-5-5-5-5-5-10-10-10-10-8-8-8-7-5-7-0-0-0-0-0-|  on
|-0-0-0-0-0-0-0-0-5-5-5-5-5-5-5-5-10-10-10-10-8-8-8-7-5-7-0-0-0-0-0-| last
|-0-0-0-0-0-0-0-0-5-5-5-5-5-5-5-5-10-10-10-10-8-8-8-7-5-7-0-0-0-0-0-| chord

Chorus:
|--------------------------------------------|
|--------------------------------------------|
|--------------------------------------------|
|-5--5--5--5-3-5--5--5--5-3-12-10-7-7/8--10~-|   x2
|-5--5--5--5-3-5--5--5--5-3-12-10-7-7/8--10~-|
|-5--5--5--5-3-5--5--5--5-3-12-10-7-7/8--10~-|

Chorus (solo part):
|-10--10--10--10-8-10--10--10--10-8-10~-8-5-5/6~-6\5\3~-6-5-3-5-|
|---------------------------------------------------------------|
|---------------------------------------------------------------|
|---------------------------------------------------------------|
|---------------------------------------------------------------|
|---------------------------------------------------------------|

|-10--10--10--10-8-10--10--10--10-8-10~-8-5-5/6~-6\5\3~-6-5-3-5-10~-|
|-------------------------------------------------------------------|
|-------------------------------------------------------------------|
|-------------------------------------------------------------------|
|-------------------------------------------------------------------|
|-------------------------------------------------------------------|

Verse 2 (use palm mute for verse):
|---------------------------------------------------------|
|---------------------------------------------------------|
|---------------------------------------------------------|
|-0-0-0-0-0-0-0-0-5-5-5-5-5-5-5-5-10-10-10-10-8-8-8-7-5-7-|  x3
|-0-0-0-0-0-0-0-0-5-5-5-5-5-5-5-5-10-10-10-10-8-8-8-7-5-7-|
|-0-0-0-0-0-0-0-0-5-5-5-5-5-5-5-5-10-10-10-10-8-8-8-7-5-7-|

|-------------------------------------------------------------------|
|-------------------------------------------------------------------|  No
|-------------------------------------------------------------------| mute
|-0-0-0-0-0-0-0-0-5-5-5-5-5-5-5-5-10-10-10-10-8-8-8-7-5-7-0-0-0-0-0-|  on
|-0-0-0-0-0-0-0-0-5-5-5-5-5-5-5-5-10-10-10-10-8-8-8-7-5-7-0-0-0-0-0-| last
|-0-0-0-0-0-0-0-0-5-5-5-5-5-5-5-5-10-10-10-10-8-8-8-7-5-7-0-0-0-0-0-| chord

Chorus 2:
|----------------------------------------------|
|----------------------------------------------|
|----------------------------------------------|
|-5--5--5--5-3-5--5--5--5-3-12-10-7-7/8--10~-0~|   x2
|-5--5--5--5-3-5--5--5--5-3-12-10-7-7/8--10~-0~|
|-5--5--5--5-3-5--5--5--5-3-12-10-7-7/8--10~-0~|

Chorus 2 (solo part):
|-10--10--10--10-8-10--10--10--10-8-10~-8-5-5/6~-6\5\3~-6-5-3-5-|
|---------------------------------------------------------------|
|---------------------------------------------------------------|
|---------------------------------------------------------------|
|---------------------------------------------------------------|
|---------------------------------------------------------------|

|-10--10--10--10-8-10--10--10--10-8-10~-8-5-5/6~-6\5\3~-6-5-3-5-10~-|
|-------------------------------------------------------------------|
|-------------------------------------------------------------------|
|-------------------------------------------------------------------|
|-------------------------------------------------------------------|
|-------------------------------------------------------------------|

Wait for the bass solo to finish. Play this to lead into the Bridge after the bass plays 
the riff THREE times...

|---------|
|---------|
|---------|
|-0-0-0-0-|  x4 (start on palm mute, then gradually let go)
|-0-0-0-0-|
|-0-0-0-0-|

Bridge:
|---------------------------------------|
|---------------------------------------|
|---------------------------------------|
|-5-5-5-5-7-8-7-5-3-5-7-0-0-0-0-0-0-0-0-|   x3
|-5-5-5-5-7-8-7-5-3-5-7-0-0-0-0-0-0-0-0-|
|-5-5-5-5-7-8-7-5-3-5-7-0-0-0-0-0-0-0-0-|

|-------------------------------------------|
|-------------------------------------------|
|-------------------------------------------|
|-5-5-5-5-7-8-7-5-3-5-7-0000-0000-0000-0000-|
|-5-5-5-5-7-8-7-5-3-5-7-0000-0000-0000-0000-|
|-5-5-5-5-7-8-7-5-3-5-7-0000-0000-0000-0000-|

Bridge (solo):
|-10--10-12-13-12-10-8-10-12------|
|----------------------------10b~-|
|---------------------------------|
|---------------------------------|
|---------------------------------|
|---------------------------------|

Repeat the bridge until the end of the piece. For the solo guitar, end on this:

|-5b~-|
|-6b~-|
|-----|
|-----|
|-----|
|-----|

************************************

| /   slide up
| \   slide down
| h   hammer-on
| p   pull-off
| ~   vibrato
| x   Mute note
| b   Bend

************************************

If you have any comments or corrections, please say. Enjoy!
Tap to rate this tab
# A B C D E F G H I J K L M N O P Q R S T U V W X Y Z